Linkin Park

Rebellion Tab

Linkin Park

Difficulty: nolevelnolevel

by fernsantana

tuner correct add songbook print version text version save to e-mail
chordsukuleleukulelecavacokeyboardtabbassdrumsharmonicsflute Guitar Pro
close

there isn't a video lesson for this song

request
chords

Rebellion

  		

intro (wt effects) 


-----------------| 
-----------------| 
-----------------| 
-12---12---12----| 
-----------------| 
----0----0---0---| x4 

riff 1 

--------------------------------------/---------------------------------------| 
--------------------------------------/---------------------------------------| 
--------------------------------------/---------------------------------------| 
--------------------------------------/---------------------------------------| 
--------------------------------------/---------------------------------------| 
-1-0-0-1-0-0-1-0-0-1-0-0-1-0-1-0-(x3)-/-12-12-12-11-11-11-8-8-8-7-7-7-5-5-7-7-| 
 * * * * * * * * * * * * * * * *        *  *  *  *  *  *  * * * * * * * * * * 


--------------------------------------/---------------------------------------| 
--------------------------------------/---------------------------------------| 
--------------------------------------/---------------------------------------| 
--------------------------------------/---------------------------------------| 
--------------------------------------/---------------------------------------| 
-1-0-0-1-0-0-1-0-0-1-0-0-1-0-1-0-(x3)-/-12-12-12-11-11-11-8-8-8-7-7-7-5-5-7-7-| 
 * * * * * * * * * * * * * * * *        *  *  *  *  *  *  * * * * * * * * * * 

--------------------------------------/---------------------------------------| 
--------------------------------------/---------------------------------------| 
--------------------------------------/---------------------------------------| 
--------------------------------------/-12-12-12-11-11-11-8-8-8-7-7-7-5-5-7-7-| 
--------------------------------------/-12-12-12-11-11-11-8-8-8-7-7-7-5-5-7-7-| 
-12-12-12-11-11-11-8-8-7-7-7-5-5-7-7--/-12-12-12-11-11-11-8-8-8-7-7-7-5-5-7-7-| 
 *  *  *  *  *  *  * * * * * * * * * 

riff 2 

------------------------------------------------------| 
------------------------------------------------------| 
------------------------------------------------------| 
------------------------------------------------------| 
------------------------------------------------------| 
-2p0--0--0-0-2p0--0--0-0-2p0--0--0-0//8-8-8-8-8-8-8-8-| x2 


riff 3 (guitar 1) 

----------------------------------------------------------------| 
----------------------------------------------------------------| 
----------------------------------------------------------------| 
---10-12--12--10-12-10--10-12-12-12----10-12--12-14-15--17--15~-| 
-12-------------------12-------------12-------------------------| 
----------------------------------------------------------------| 


--------------------------------------------------------------------| 
--------------------------------------------------------------------| 
--------------------------------------------------------------------| 
---10-12--12--10-12-10--10-12-12-12----10-12--12-14-15--17-19-19-19-| 
-12-------------------12-------------12-----------------------------| 
--------------------------------------------------------------------| 


riff 3 (guitar 2) 

---------------------------------------------------------------| 
--------------------------------------------8-10--11--10~------| 
-7-9-10--10--9-10-9-7-9-10-10-10--7-9-10--10-------------------| 
---------------------------------------------------------------| 
---------------------------------------------------------------| 
---------------------------------------------------------------| 


------------------------------------------------------------------| 
--------------------------------------------8-10--11--13-13-13-13-| 
-7-9-10--10--9-10-9-7-9-10-10-10--7-9-10--10----------------------| 
------------------------------------------------------------------| 
------------------------------------------------------------------| 
------------------------------------------------------------------| 


verse 

----------------------/------------------------------------| 
----------------------/------------------------------------| 
----------------------/------------------------------------| 
----------------------/------------------------------------| 
----------------------/----------1-1-1-1-------------------| 
-2p0-0-0-0-0-0-0-(x3)-/--3-3-3-3---------------------------| x6 
 * * * * * * * *         * * * * * * * * 

Chorus 

------------------------------------| 
------------------------------------| 
------------------------------------| 
-10~--10-0-5~--5-0-8~--8-0-3~--3-0--| 
-10~--10-0-5~--5-0-8~--8-0-3~--3-0--| 
-10~--10-0-5~--5-0-8~--8-0-3~--3-0--| x2 


riff 3 

verse x6 

preChorus x2 

Chorus 


bridge (guitar 1) 

-----------------------------------| 
-----------------------------------| 
-----------------------------------| 
-----------------------------------| 
-----------------------------------| 
-1p0-0-1p0-0-1p0-0-1p0-0-1p0-1p0---| x4 

bridge (guitar 2-with effects) 

------------------------------------------------------| 
------------------------------------------------------| 
------------------------------------------------------| 
-0-19p0-0-19p0-0-19p0-0-19p0-19-19-19-19--(x2)--------| 
------------------------------------------------------| 
------------------------------------------------------| 

------------------------------------------------------| 
------------------------------------------------------| 
------------------------------------------------------| 
-0-14p0-0-15p0-0-17p0-0-15p0-15-15-15-15--(x2)--------| 
------------------------------------------------------| 
------------------------------------------------------|  x2 


breakdown 

--------------------------------/---------------------------------------| 
--------------------------------/---------------------------------------| 
--------------------------------/---------------------------------------| 
-1-0-0-1-0-0-1-0-0-1-0-0-1------/---------------------------------------| 
-1-0-0-1-0-0-1-0-0-1-0-0-1------/---------------------------------------| 
-1-0-0-1-0-0-1-0-0-1-0-0-1-(x3)-/--4-4-4-5-5-5-7-7-7-8-8-8-11-11-11-11--| x2 
 * * * * * * * * * * * * * 

----------------------------------------| 
----------------------------------------| 
----------------------------------------| 
----------------------------------------| 
----------------------------------------| 
--4-4-4-5-5-5-7-7-7-8-8-8-11-11-11-11---| x2 

Chorus x2 

riff 3 
	  

Search Paypal
auto scroll beats size up size down change color hide chords drawings
tab show chords e-chords YouTube Clip e-chords hide all tabs e-chords go to top tab

share with facebook