Linkin Park

Basquiat Tab

Linkin Park

Difficulty: nolevelnolevel

by terr%5Fschmitz

tuner correct add songbook print version text version save to e-mail
chordsukulelecavacokeyboardtabbassdrumsharmonicsflute Guitar Pro
close

there isn't a video lesson for this song

request
chords

Basquiat

  		

(No guitar in intro) 

First Verse - Guitar 1 (Softly) 
|-------------------------------------------------------------------------------------------------| 
|-------------------------------------------------------------------------------------------------| 
|-8-----8--8--8--7--7--7--7--7--7--5--5-----5--5--5--8--7~----------------------------------------| 
|-5-----5--5--5--5--5--5--5--5--5--5--5-----5--5--5--5--5~----------------------------------------| 
|-------------------------------------------------------------------------------------------------| 
|-------------------------------------------------------------------------------------------------| 

|-------------------------------------------------------------------------------------------------| 
|-------------------------------------------------------------------------------------------------| 
|-8-----8--8--8--7--7--7--7--7--7--5--5-----5--5--5--8--7~----------------------------------------| 
|-5-----5--5--5--5--5--5--5--5--5--5--5-----5--5--5--5--5~----------------------------------------| 
|-------------------------------------------------------------------------------------------------| 
|-------------------------------------------------------------------------------------------------| 

|-------------------------------------------------------------------------------------------------| 
|-------------------------------------------------------------------------------------------------| 
|-8-----8--8--8--7--7--7--7--7--7--5--5-----5--5--5--8--7~----------------------------------------| 
|-5-----5--5--5--5--5--5--5--5--5--5--5-----5--5--5--5--5~----------------------------------------| 
|-------------------------------------------------------------------------------------------------| 
|-------------------------------------------------------------------------------------------------| 

|-------------------------------------------------------------------------------------------------| 
|-------------------------------------------------------------------------------------------------| 
|-8-----8--8--8--7--7--7--7--7--7--5--5-----5--5--5--8--7~----------7-----7-----7-----7-----7-----| 
|-5-----5--5--5--5--5--5--5--5--5--5--5-----5--5--5--5--5~----------5-----5-----5-----5-----5-----| 
|-------------------------------------------------------------------------------------------------| 
|-------------------------------------------------------------------------------------------------| 
                                              Gradually pick harder .     .     .     .     . 

Chorus 
|-------------------------------------------------------------------------------------------------| 
|-------------------------------------------------------------------------------------------------| 
|-8-----8--8--8--7--7--7--7--7--7--5--5-----5--5--5--8--7~----------7-----7-----7-----7-----7-----| 
|-5-----5--5--5--5--5--5--5--5--5--5--5-----5--5--5--5--5~----------5-----5-----5-----5-----5-----| 
|-------------------------------------------------------------------------------------------------| 
|-------------------------------------------------------------------------------------------------| 
|Guitar 1 
| 
|-------------------------------------------------------------------------------------------------| 
|-------------------------------------------------------------------------------------------------| 
|-8--8--8--8--8--8--10-10-10-10-10-10-10-10-10-10-10-10-12-12-12-12-12-12-12-12-12-12-12-12-12-12-| 
|-x--x--x--x--x--x--x--x--x--x--x--x--x--x--x--x--x--x--x--x--x--x--x--x--x--x--x--x--x--x--x--x--| 
|-6--6--6--6--6--6--8--8--8--8--8--8--8--8--8--8--8--8--10-10-10-10-10-10-10-10-10-10-10-10-10-10-| 
|-------------------------------------------------------------------------------------------------| 
|Guitars 2 and 3 

|-------------------------------------------------------------------------------------------------| 
|-------------------------------------------------------------------------------------------------| 
|-8-----8--8--8--7--7--7--7--7--7--5--5-----5--5--5--8--7~----------7-----7-----7-----7-----7-----| 
|-5-----5--5--5--5--5--5--5--5--5--5--5-----5--5--5--5--5~----------5-----5-----5-----5-----5-----| 
|-------------------------------------------------------------------------------------------------| 
|-------------------------------------------------------------------------------------------------| 
|Guitar 1 
| 
|-------------------------------------------------------------------------------------------------| 
|-------------------------------------------------------------------------------------------------| 
|-8--8--8--8--8--8--10-10-10-10-10-10-10-10-10-10-10-10-12-12-12-12-12-12-12-12-12-12-12-12-12-12-| 
|-x--x--x--x--x--x--x--x--x--x--x--x--x--x--x--x--x--x--x--x--x--x--x--x--x--x--x--x--x--x--x--x--| 
|-6--6--6--6--6--6--8--8--8--8--8--8--8--8--8--8--8--8--10-10-10-10-10-10-10-10-10-10-10-10-10-10-| 
|-------------------------------------------------------------------------------------------------| 
|Guitars 2 and 3 

2nd Verse - Guitar 1 (Softly) 
|-------------------------------------------------------------------------------------------------| 
|-------------------------------------------------------------------------------------------------| 
|-8-----8--8--8--7--7--7--7--7--7--5--5-----5--5--5--8--7~----------------------------------------| 
|-5-----5--5--5--5--5--5--5--5--5--5--5-----5--5--5--5--5~----------------------------------------| 
|-------------------------------------------------------------------------------------------------| 
|-------------------------------------------------------------------------------------------------| 

|-------------------------------------------------------------------------------------------------| 
|-------------------------------------------------------------------------------------------------| 
|-8-----8--8--8--7--7--7--7--7--7--5--5-----5--5--5--8--7~----------------------------------------| 
|-5-----5--5--5--5--5--5--5--5--5--5--5-----5--5--5--5--5~----------------------------------------| 
|-------------------------------------------------------------------------------------------------| 
|-------------------------------------------------------------------------------------------------| 

|-------------------------------------------------------------------------------------------------| 
|-------------------------------------------------------------------------------------------------| 
|-8-----8--8--8--7--7--7--7--7--7--5--5-----5--5--5--8--7~----------------------------------------| 
|-5-----5--5--5--5--5--5--5--5--5--5--5-----5--5--5--5--5~----------------------------------------| 
|-------------------------------------------------------------------------------------------------| 
|-------------------------------------------------------------------------------------------------| 

|-------------------------------------------------------------------------------------------------| 
|-------------------------------------------------------------------------------------------------| 
|-8-----8--8--8--7--7--7--7--7--7--5--5-----5--5--5--8--7~----------7-----7-----7-----7-----7-----| 
|-5-----5--5--5--5--5--5--5--5--5--5--5-----5--5--5--5--5~----------5-----5-----5-----5-----5-----| 
|-------------------------------------------------------------------------------------------------| 
|-------------------------------------------------------------------------------------------------| 
                                              Gradually pick harder .     .     .     .     . 

Chorus 
|-------------------------------------------------------------------------------------------------| 
|-------------------------------------------------------------------------------------------------| 
|-8-----8--8--8--7--7--7--7--7--7--5--5-----5--5--5--8--7~----------7-----7-----7-----7-----7-----| 
|-5-----5--5--5--5--5--5--5--5--5--5--5-----5--5--5--5--5~----------5-----5-----5-----5-----5-----| 
|-------------------------------------------------------------------------------------------------| 
|-------------------------------------------------------------------------------------------------| 
|Guitar 1 
| 
|-------------------------------------------------------------------------------------------------| 
|-------------------------------------------------------------------------------------------------| 
|-8--8--8--8--8--8--10-10-10-10-10-10-10-10-10-10-10-10-12-12-12-12-12-12-12-12-12-12-12-12-12-12-| 
|-x--x--x--x--x--x--x--x--x--x--x--x--x--x--x--x--x--x--x--x--x--x--x--x--x--x--x--x--x--x--x--x--| 
|-6--6--6--6--6--6--8--8--8--8--8--8--8--8--8--8--8--8--10-10-10-10-10-10-10-10-10-10-10-10-10-10-| 
|-------------------------------------------------------------------------------------------------| 
|Guitars 2 and 3 

|-------------------------------------------------------------------------------------------------| 
|-------------------------------------------------------------------------------------------------| 
|-8-----8--8--8--7--7--7--7--7--7--5--5-----5--5--5--8--7~----------7-----7-----7-----7-----7-----| 
|-5-----5--5--5--5--5--5--5--5--5--5--5-----5--5--5--5--5~----------5-----5-----5-----5-----5-----| 
|-------------------------------------------------------------------------------------------------| 
|-------------------------------------------------------------------------------------------------| 
|Guitar 1 
| 
|-------------------------------------------------------------------------------------------------| 
|-------------------------------------------------------------------------------------------------| 
|-8--8--8--8--8--8--10-10-10-10-10-10-10-10-10-10-10-10-12-12-12-12-12-12-12-12-12-12-12-12-12-12-| 
|-x--x--x--x--x--x--x--x--x--x--x--x--x--x--x--x--x--x--x--x--x--x--x--x--x--x--x--x--x--x--x--x--| 
|-6--6--6--6--6--6--8--8--8--8--8--8--8--8--8--8--8--8--10-10-10-10-10-10-10-10-10-10-10-10-10-10-| 
|-------------------------------------------------------------------------------------------------| 
|Guitars 2 and 3 

|-------------------------------------------------------------------------------------------------| 
|-------------------------------------------------------------------------------------------------| 
|-8-----8--8--8--8--10----10-10-10-10-10----10-10-7-----7--7--7--7--7-----7--7--7--7--7-----7--7--| 
|-8-----8--8--8--8--10----10-10-10-10-10----10-10-5-----5--5--5--5--5-----5--5--5--5--5-----5--5--| 
|-------------------------------------------------------------------------------------------------| 
|-------------------------------------------------------------------------------------------------| 
|Guitar 1 
| 
|-------------------------------------------------------------------------------------------------| 
|-------------------------------------------------------------------------------------------------| 
|-12----12-12----12-14-------14----14-14----14-14-15----15-15----15-15----15-15----15-15----15-12-| 
|-x-----x--x-----x--x--------x-----x--x-----x--x--x-----x--x-----x--x-----x--x-----x--x-----x--x--| 
|-10----10-10----10-12-------12----12-12----12-12-13----13-13----13-13----13-13----13-13----13-10-| 
|-------------------------------------------------------------------------------------------------| 
|Guitars 2 and 3 

|-------------------------------------------------------------------------------------------------| 
|-------------------------------------------------------------------------------------------------| 
|-8-----8--8--8--8--10----10-10-10-10-10----10-10-7-----7--7--7--7--7-----7--7--7--7--7-----7--7--| 
|-8-----8--8--8--8--10----10-10-10-10-10----10-10-5-----5--5--5--5--5-----5--5--5--5--5-----5--5--| 
|-------------------------------------------------------------------------------------------------| 
|-------------------------------------------------------------------------------------------------| 
|Guitar 1 
| 
|-------------------------------------------------------------------------------------------------| 
|-------------------------------------------------------------------------------------------------| 
|-12----12-12----12-14-------14----14-14----14-14-15----15-15----15-15----15-15----15-15----15-12-| 
|-x-----x--x-----x--x--------x-----x--x-----x--x--x-----x--x-----x--x-----x--x-----x--x-----x--x--| 
|-10----10-10----10-12-------12----12-12----12-12-13----13-13----13-13----13-13----13-13----13-10-| 
|-------------------------------------------------------------------------------------------------| 
|Guitars 2 and 3 

|-------------------------------------------------------------------------------------------------| 
|-------------------------------------------------------------------------------------------------| 
|-8-----8--8--8--8--10----10-10-10-10-10----10-10-7-----7--7--7--5--5-----5--5--5--3--3-----3--3--| 
|-8-----8--8--8--8--10----10-10-10-10-10----10-10-5-----5--5--5--3--3-----3--3--3--1--1-----1--1--| 
|-------------------------------------------------------------------------------------------------| 
|-------------------------------------------------------------------------------------------------| 
|Guitar 1 
| 
|-------------------------------------------------------------------------------------------------| 
|-------------------------------------------------------------------------------------------------| 
|-12----12-12----12-14-------14----14-14----14-14-15----15-15----14-14-------14----12-12----12-12-| 
|-x-----x--x-----x--x--------x-----x--x-----x--x--x-----x--x-----x--x--------x-----x--x-----x--x--| 
|-10----10-10----10-12-------12----12-12----12-12-13----13-13----12-12-------12----10-10----10-10-| 
|-------------------------------------------------------------------------------------------------| 
|Guitars 2 and 3 

|-------------------------------------------------------------------------------------------------| 
|-------------------------------------------------------------------------------------------------| 
|-------------------------------------------------------------------------------------------------| 
|-5-----5--5--5--5--5-----5--5--5--5--5-----5--5--8-----8--8--8--8--10----10-10-10-10-10----10-10-| 
|-3-----3--3--3--3--3-----3--3--3--3--3-----3--3--6-----6--6--6--6--8-----8--8--8--8--8-----8--8--| 
|-------------------------------------------------------------------------------------------------| 
|Guitar 1 
| 
|-------------------------------------------------------------------------------------------------| 
|-------------------------------------------------------------------------------------------------| 
|-12----12-12----12-12-------12----12-12----12-15-15----15-15----14-14-------14----14-14----14-14-| 
|-x-----x--x-----x--x--------x-----x--x-----x--x--x-----x--x-----x--x--------x-----x--x-----x--x--| 
|-10----10-10----10-10-------10----10-10----10-13-13----13-13----12-12-------12----12-12----12-12-| 
|-------------------------------------------------------------------------------------------------| 
|Guitars 2 and 3 

Bridge - Guitar 1 
|-------------------------------------------------------------------------------------------------| 
|-------------------------------------------------------------------------------------------------| 
|-12~---------------------------------------------------------------12----12----10----10----8-----| 
|-x-----------------------------------------------------------------x-----x-----x-----x-----x-----| 
|-10~---------------------------------------------------------------10----10----8-----8-----6-----| 
|-------------------------------------------------------------------------------------------------| 

|-------------------------------------------------------------------------------------------------| 
|-------------------------------------------------------------------------------------------------| 
|-7~----------------------------------3-----5~----------------------------------------------------| 
|-x-----------------------------------x-----x-----------------------------------------------------| 
|-5~----------------------------------1-----3~----------------------------------------------------| 
|-------------------------------------------------------------------------------------------------| 

|-------------------------------------------------------------------------------------------------| 
|-------------------------------------------------------------------------------------------------| 
|-12~---------------------------------------------------------------12----12----10----10----8-----| 
|-x-----------------------------------------------------------------x-----x-----x-----x-----x-----| 
|-10~---------------------------------------------------------------10----10----8-----8-----6-----| 
|-------------------------------------------------------------------------------------------------| 

|-------------------------------------------------------------------------------------------------| 
|-------------------------------------------------------------------------------------------------| 
|-7~----------------------------------3-----5~----------------------------------------------------| 
|-x-----------------------------------x-----x-----------------------------------------------------| 
|-5~----------------------------------1-----3~----------------------------------------------------| 
|-------------------------------------------------------------------------------------------------| 

|-------------------------------------------------------------------------------------------------| 
|-------------------------------------------------------------------------------------------------| 
|-12~---------------------------------------------------------------12----12----10----10----8-----| 
|-x-----------------------------------------------------------------x-----x-----x-----x-----x-----| 
|-10~---------------------------------------------------------------10----10----8-----8-----6-----| 
|-------------------------------------------------------------------------------------------------| 
|Guitar 1 
| 
|-------------------------------------------------------------------------------------------------| 
|-------------------------------------------------------------------------------------------------| 
|-12-12-12-12-12-12-12-12-12-12-12-12-12-12-12-12-12-12-12-12-12-12-12-12-12-12-12-12-12-12-12-12-| 
|-x--x--x--x--x--x--x--x--x--x--x--x--x--x--x--x--x--x--x--x--x--x--x--x--x--x--x--x--x--x--x--x--| 
|-10-10-10-10-10-10-10-10-10-10-10-10-10-10-10-10-10-10-10-10-10-10-10-10-10-10-10-10-10-10-10-10-| 
|-------------------------------------------------------------------------------------------------| 
|Guitar 4 

|-------------------------------------------------------------------------------------------------| 
|-------------------------------------------------------------------------------------------------| 
|-7~----------------------------------3-----5~----------------------5-----5-----5-----5-----5-----| 
|-x-----------------------------------x-----x-----------------------x-----x-----x-----x-----x-----| 
|-5~----------------------------------1-----3~----------------------3-----3-----3-----3-----3-----| 
|-------------------------------------------------------------------------------------------------| 
|                                 Start soft, gradually pick harder .     .     .     .     . 
|Guitar 1 
| 
|-------------------------------------------------------------------------------------------------| 
|-------------------------------------------------------------------------------------------------| 
|-12-12-12-12-12-12-12-12-12-12-12-12-12-12-12-12-12-12-12-12-12-12-12-12-12-12-12-12-12-12-12-12-| 
|-x--x--x--x--x--x--x--x--x--x--x--x--x--x--x--x--x--x--x--x--x--x--x--x--x--x--x--x--x--x--x--x--| 
|-10-10-10-10-10-10-10-10-10-10-10-10-10-10-10-10-10-10-10-10-10-10-10-10-10-10-10-10-10-10-10-10-| 
|-------------------------------------------------------------------------------------------------| 
|Guitar 4 

|-------------------------------------------------------------------------------------------------| 
|-------------------------------------------------------------------------------------------------| 
|-12~--------------------(12)--(12)---12----12----12----12----12----12----12----10----10----8-----| 
|-x-----------------------x-----x-----x-----x-----x-----x-----x-----x-----x-----x-----x-----x-----| 
|-10~--------------------(10)--(10)---10----10----10----10----10----10----10----8-----8-----6-----| 
|-------------------------------------------------------------------------------------------------| 
|   Start soft, gradually pick harder .     .     .     .     . 
|Guitar 1 
| 
|-------------------------------------------------------------------------------------------------| 
|-------------------------------------------------------------------------------------------------| 
|-12-12-12-12-12-12-12-12-12-12-12-12-12-12-12-12-12-12-12-12-12-12-12-12-12-12-12-12-12-12-12-12-| 
|-x--x--x--x--x--x--x--x--x--x--x--x--x--x--x--x--x--x--x--x--x--x--x--x--x--x--x--x--x--x--x--x--| 
|-10-10-10-10-10-10-10-10-10-10-10-10-10-10-10-10-10-10-10-10-10-10-10-10-10-10-10-10-10-10-10-10-| 
|-------------------------------------------------------------------------------------------------| 
|Guitar 4 

|-------------------------------------------------------------------------------------------------| 
|-------------------------------------------------------------------------------------------------| 
|-7~----------7-----7-----7-----7-----3-----5-----5-----5-----5-----5-----5-----5-----5-----------| 
|-x-----------x-----x-----x-----x-----x-----x-----x-----x-----x-----x-----x-----x-----x-----------| 
|-5~----------5-----5-----5-----5-----1-----3-----3-----3-----3-----3-----3-----3-----3-----------| 
|-------------------------------------------------------------------------------------------------| 
|Guitar 1 
| 
|-------------------------------------------------------------------------------------------------| 
|-------------------------------------------------------------------------------------------------| 
|-12-12-12-12-12-12-12-12-12-12-12-12-12-12-12-12-12-12-12-12-12-12-12-12-12-12-12-12-12----------| 
|-x--x--x--x--x--x--x--x--x--x--x--x--x--x--x--x--x--x--x--x--x--x--x--x--x--x--x--x--x-----------| 
|-10-10-10-10-10-10-10-10-10-10-10-10-10-10-10-10-10-10-10-10-10-10-10-10-10-10-10-10-10----------| 
|-------------------------------------------------------------------------------------------------| 
|Guitar 4 

Final Chorus 
|-------------------------------------------------------------------------------------------------| 
|-------------------------------------------------------------------------------------------------| 
|-8-----8--8--8--7--7--7--7--7--7--5--5-----5--5--5--8--7~----------7-----7-----7-----7-----7-----| 
|-5-----5--5--5--5--5--5--5--5--5--5--5-----5--5--5--5--5~----------5-----5-----5-----5-----5-----| 
|-------------------------------------------------------------------------------------------------| 
|-------------------------------------------------------------------------------------------------| 
|Guitar 1 
| 
|-------------------------------------------------------------------------------------------------| 
|-------------------------------------------------------------------------------------------------| 
|-8--8--8--8--8--8--10-10-10-10-10-10-10-10-10-10-10-10-12-12-12-12-12-12-12-12-12-12-12-12-12-12-| 
|-x--x--x--x--x--x--x--x--x--x--x--x--x--x--x--x--x--x--x--x--x--x--x--x--x--x--x--x--x--x--x--x--| 
|-6--6--6--6--6--6--8--8--8--8--8--8--8--8--8--8--8--8--10-10-10-10-10-10-10-10-10-10-10-10-10-10-| 
|-------------------------------------------------------------------------------------------------| 
|Guitars 2 and 3 

|-------------------------------------------------------------------------------------------------| 
|-------------------------------------------------------------------------------------------------| 
|-8-----8--8--8--7--7--7--7--7--7--5--5-----5--5--5--8--7~----------7-----7-----7-----7-----7-----| 
|-5-----5--5--5--5--5--5--5--5--5--5--5-----5--5--5--5--5~----------5-----5-----5-----5-----5-----| 
|-------------------------------------------------------------------------------------------------| 
|-------------------------------------------------------------------------------------------------| 
|Guitar 1 
| 
|-------------------------------------------------------------------------------------------------| 
|-------------------------------------------------------------------------------------------------| 
|-8--8--8--8--8--8--10-10-10-10-10-10-10-10-10-10-10-10-12-12-12-12-12-12-12-12-12-12-12-12-12-12-| 
|-x--x--x--x--x--x--x--x--x--x--x--x--x--x--x--x--x--x--x--x--x--x--x--x--x--x--x--x--x--x--x--x--| 
|-6--6--6--6--6--6--8--8--8--8--8--8--8--8--8--8--8--8--10-10-10-10-10-10-10-10-10-10-10-10-10-10-| 
|-------------------------------------------------------------------------------------------------| 
|Guitars 2 and 3 

|-------------------------------------------------------------------------------------------------| 
|-------------------------------------------------------------------------------------------------| 
|-8-----8--8--8--8--10----10-10-10-10-10----10-10-7-----7--7--7--7--7-----7--7--7--7--7-----7--7--| 
|-8-----8--8--8--8--10----10-10-10-10-10----10-10-5-----5--5--5--5--5-----5--5--5--5--5-----5--5--| 
|-------------------------------------------------------------------------------------------------| 
|-------------------------------------------------------------------------------------------------| 
|Guitar 1 
| 
|-------------------------------------------------------------------------------------------------| 
|-------------------------------------------------------------------------------------------------| 
|-12----12-12----12-14-------14----14-14----14-14-15----15-15----15-15----15-15----15-15----15-12-| 
|-x-----x--x-----x--x--------x-----x--x-----x--x--x-----x--x-----x--x-----x--x-----x--x-----x--x--| 
|-10----10-10----10-12-------12----12-12----12-12-13----13-13----13-13----13-13----13-13----13-10-| 
|-------------------------------------------------------------------------------------------------| 
|Guitars 2 and 3 

|-------------------------------------------------------------------------------------------------| 
|-------------------------------------------------------------------------------------------------| 
|-8-----8--8--8--8--10----10-10-10-10-10----10-10-7-----7--7--7--7--7-----7--7--7--7--7-----7--7--| 
|-8-----8--8--8--8--10----10-10-10-10-10----10-10-5-----5--5--5--5--5-----5--5--5--5--5-----5--5--| 
|-------------------------------------------------------------------------------------------------| 
|-------------------------------------------------------------------------------------------------| 
|Guitar 1 
| 
|-------------------------------------------------------------------------------------------------| 
|-------------------------------------------------------------------------------------------------| 
|-12----12-12----12-14-------14----14-14----14-14-15----15-15----15-15----15-15----15-15----15-12-| 
|-x-----x--x-----x--x--------x-----x--x-----x--x--x-----x--x-----x--x-----x--x-----x--x-----x--x--| 
|-10----10-10----10-12-------12----12-12----12-12-13----13-13----13-13----13-13----13-13----13-10-| 
|-------------------------------------------------------------------------------------------------| 
|Guitars 2 and 3 

|-------------------------------------------------------------------------------------------------| 
|-------------------------------------------------------------------------------------------------| 
|-8-----8--8--8--8--10----10-10-10-10-10----10-10-7-----7--7--7--5--5-----5--5--5--3--3-----3--3--| 
|-8-----8--8--8--8--10----10-10-10-10-10----10-10-5-----5--5--5--3--3-----3--3--3--1--1-----1--1--| 
|-------------------------------------------------------------------------------------------------| 
|-------------------------------------------------------------------------------------------------| 
|Guitar 1 
| 
|-------------------------------------------------------------------------------------------------| 
|-------------------------------------------------------------------------------------------------| 
|-12----12-12----12-14-------14----14-14----14-14-15----15-15----14-14-------14----12-12----12-12-| 
|-x-----x--x-----x--x--------x-----x--x-----x--x--x-----x--x-----x--x--------x-----x--x-----x--x--| 
|-10----10-10----10-12-------12----12-12----12-12-13----13-13----12-12-------12----10-10----10-10-| 
|-------------------------------------------------------------------------------------------------| 
|Guitars 2 and 3 

|-------------------------------------------------------------------------------------------------| 
|-------------------------------------------------------------------------------------------------| 
|-------------------------------------------------------------------------------------------------| 
|-5-----5--5--5--5--5-----5--5--5--5--5-----5--5--8-----8--8--8--8--10----10-10-10-10-10----10-10-| 
|-3-----3--3--3--3--3-----3--3--3--3--3-----3--3--6-----6--6--6--6--8-----8--8--8--8--8-----8--8--| 
|-------------------------------------------------------------------------------------------------| 
|Guitar 1 
| 
|-------------------------------------------------------------------------------------------------| 
|-------------------------------------------------------------------------------------------------| 
|-12----12-12----12-12-------12----12-12----12-15-15----15-15----14-14-------14----14-14----14-14-| 
|-x-----x--x-----x--x--------x-----x--x-----x--x--x-----x--x-----x--x--------x-----x--x-----x--x--| 
|-10----10-10----10-10-------10----10-10----10-13-13----13-13----12-12-------12----12-12----12-12-| 
|-------------------------------------------------------------------------------------------------| 
|Guitars 2 and 3 

Outro - Guitar 1 (Softly) 
|-------------------------------------------------------------------------------------------------| 
|-------------------------------------------------------------------------------------------------| 
|-8-----8--8--8--7--7--7--7--7--7--5--5-----5--5--5--8--7~----------------------------------------| 
|-5-----5--5--5--5--5--5--5--5--5--5--5-----5--5--5--5--5~----------------------------------------| 
|-------------------------------------------------------------------------------------------------| 
|-------------------------------------------------------------------------------------------------| 

|-------------------------------------------------------------------------------------------------| 
|-------------------------------------------------------------------------------------------------| 
|-8-----8--8--8--7--7--7--7--7--7--5--5-----5--5--5--8--7~----------------------------------------| 
|-5-----5--5--5--5--5--5--5--5--5--5--5-----5--5--5--5--5~----------------------------------------| 
|-------------------------------------------------------------------------------------------------| 
|-------------------------------------------------------------------------------------------------| 
	  

Search Paypal
auto scroll beats size up size down change color hide chords drawings
tab show chords e-chords YouTube Clip e-chords hide all tabs e-chords go to top tab

share with facebook