Linkin Park

Ammosick Tab

Linkin Park

Difficulty: nolevelnolevel

by edsooliveira

tuner correct add songbook print version text version save to e-mail
chordsukulelecavacokeyboardtabbassdrumsharmonicsflute Guitar Pro
close

there isn't a video lesson for this song

request
chords

Ammosick

  		

Key 

/=slide up 
\=slide down 
*=palm mute 
~=let ring 
_____________ 

Bridge with no vocals 
1:37-2:11 
E|------------------------------------------------------------| 
B|------------------------------------------------------------| 
G|------------------------------------------------------------| 
D|-7---7--7/10---10\5--5--5---3--3---3/5-5/7---5--3-----------| 
A|------------------------------------------------------------| 
E|------------------------------------------------------------| 

E|------------------------------------------------------------| 
B|------------------------------------------------------------| 
G|------------------------------------------------------------| 
D|-7---7--7/12--10---10\5--5--5---3--3---3/5-5/7--5\3---------| 
A|------------------------------------------------------------| 
E|------------------------------------------------------------| 
                                                    * 

E|------------------------------------------------------------| 
B|------------------------------------------------------------| 
G|------------------------------------------------------------| 
D|-3/12--10--10-7--5---3--5--5/7--12--10--7--5----------------| 
A|------------------------------------------------------------| 
E|------------------------------------------------------------| 

E|------------------------------------------------------------| 
B|------------------------------------------------------------| 
G|------------------------------------------------------------| 
D|-3--3/5-5/7-7/12--10--7--5---5/7----7/3--------3/5~---------| 
A|------------------------------------------------------------| 
E|------------------------------------------------------------| 

Vocals begin again 
2:12-2:47 
E|------------------------------------------------------------| 
B|------------------------------------------------------------| 
G|-2------5--------------------2------5-----------------------| 
D|---------------3------5--------------------3------5---------| 
A|------------------------------------------------------------| 
E|------------------------------------------------------------| 

E|------------------------------------------------------------| 
B|------------------------------------------------------------| 
G|-2------5-------------5-------------5-----------------------| 
D|---------------3-------------5-------------3------5---------| 
A|---------------------------------------------------------5~-| 
E|------------------------------------------------------------| 

Outro (I think this is only piano) 
x3 
E|------------------------------------------------------------| 
B|------------------------------------------------------------| 
G|-5----------------------------------------------------------| 
D|--------3------5--------------------------------------------| 
A|----------------------5-------------------------------------| 
E|------------------------------------------------------------| 

Fades out, and ends on this 
E|------------------------------------------------------------| 
B|------------------------------------------------------------| 
G|-5----------------------------------------------------------| 
D|------------------------------------------------------------| 
A|------------------------------------------------------------| 
E|------------------------------------------------------------| 

If there's any confusion, questions, or advice on how to  
improve it, please post a comment. Have fun playing, and  
please rate! -Rarrlow 
	  

Search Paypal
auto scroll beats size up size down change color hide chords drawings
tab show chords e-chords YouTube Clip e-chords hide all tabs e-chords go to top tab

share with facebook