Lindsey Buckingham

Stephanie

Lindsey Buckingham

tabs

by  FERNSANTANA

save to print version add songbook text version e-mail correct tuner
chordsukulelecavacokeyboardtabbassdrumsharmonicaflute Guitar Pro
close

there isn't a video lesson for this song

chords

Stephanie

	  		

1. 
e|----------------0----------------------------------------0----2---2h4---4p2p0------| 
B|-----2---2h4-----4--4---4--2--0-----0---4--4--4---4-2p0----------------------0-----| 
G|---3---3------3---3--3---3--2--0---0-0---0---0---0-----0---0-----------0-----------| 
D|----2----2---------2------2--2--2-2---2---0---0---0---0-----0----0-----------------| 
A|--0---0------0---------0---------4------2---2---2---2------------------------------| 
E|---------------------------------------------------------0------0-----0------------| 



2. 
e|----------------0-----------------------------0----------0----2---2h4---4p2p0-----------| 
B|-----2---2h4-----4--4---4--2--0-----0---4--4------4-2p0----------------------0--4p2p0---| 
G|---3---3------3---3--3---3--2--0---0-0---0---0---0-----0---0-----------0----------------| 
D|----2----2---------2------2--2--2-2---2---0---0---0---0-----0----0----------------------| 
A|--0---0------0---------0---------4------2---2---2---2-----------------------------------| 
E|---------------------------------------------------------0------0-----0-----------------| 



3. 
e|----------------0--0-----------------------| 
B|-----2---2h4-----4--4-------2---2h4--------| 
G|---3---3------3---3--3----3---3------------| 
D|----2----2------2---2------2----2----------| 
A|--0---0------0----0------0---0------0------| 
E|-------------------------------------------| 



4. 
e|-------------------------------------------------------------------------------------| 
B|------0----2----4----2----0-----0----2----4----2-----4-----0----2-----4----2----0----| 
G|------0----2----3----2----0-----0----2----3----2-----3-----0----2-----3----2----0----| 
D|----0---0----2----4----2----0-0---0----2----4----2-----4-0---0----2-----4----2----0--| 
A|---------0---------0---------------0---------0----------------0----------0-----------| 
E|---0----------0---------0----0----------0----------0----0-----------0---------0------| 

e|----------------0--0------| 
B|-----2---2h4-----4--4-----| 
G|---3---3------3---3--3----| 
D|----2----2------2---2-----| 
A|--0---0------0----0-------| 
E|--------------------------| 



5. 
e|----------------------------------------------------------------------------------------| 
B|------0----2----4----2----0-----0----2----4----2-----4-----0----2-----4----2-----4------| 
G|------0----2----3----2----0-----0----2----3----2-----3-----0----2-----3----2-----3------| 
D|----0---0----2----4----2----0-0---0----2----4----2-----4-0---0----2-----4----2-----4----| 
A|---------0---------0---------------0---------0----------------0----------0--------------| 
E|---0----------0---------0----0----------0----------0----0-----------0----------0-----0--| 

e|------------------0--0-------| 
B|--2----4----2------0--0------| 
G|--2----3----2-------0--0-----| 
D|----2----4----2--------------| 
A|-----0-----------------------| 
E|-----------0----0------------| 


repeat verses 1 to 5 (x1) 



6. 
e|----------------0--0------| 
B|-----2---2h4-----4--4-----| 
G|---3---3------3---3--3----| x3 
D|----2----2------2---2-----| 
A|--0---0------0----0-------| 
E|--------------------------| 


7. 
e|----------------7+----| 
B|-----2---x-----7+-----| 
G|---3---3------7+------| 
D|----2--------7+-------| 
A|--0---0-----7+--------| 
E|-----------7+---------|  
		  

See also:

tabs Aerosmith - Dream On tabs Bon Jovi - It's My Life tabs Van Halen - Pretty Woman tabs Mr. Big - To Be With You tabs Guns N' Roses - Don't Cry tabs Guns N' Roses - Sweet Child o' mine
e-chords

Other versions:

tabs Lindsey Buckingham - Stephanie
auto scroll beats size up size down change color hide chords drawings
tab show chords e-chords YouTube Clip e-chords hide all tabs e-chords go to top tab

share