Limp Bizkit

home > Limp Bizkit

Hold On Tab

Limp Bizkit

Difficulty: nolevelnolevel

by paulantunes

tuner correct add songbook print version text version save to e-mail
chordsukulelecavacokeyboardtabbassdrumsharmonicsflute Guitar Pro
chords

Hold On

  		
 
D#|---------------------------------------------------------------| 
A#|---------------------------------------------------------------| 
F#|-------2-------2--------2-----2---0h2--------------------------| 
C#|--------------------0------------------------------------------| 
G#|---0-----------------------3-----------------------------------| 
C#|-----------5---------------------------------------------------| 


 
D#|---------------------------------------------------------------| 
A#|---------------------------------------------------------------| 
F#|-------2-------2--------2-----2---2h3h2------------------------| 
C#|--------------------0------------------------------------------| 
G#|---0-----------------------3-----------------------------------| 
C#|-----------5---------------------------------------------------| 
 
	  

Search Paypal
auto scroll beats size up size down change color hide chords drawings
tab show chords e-chords YouTube Clip e-chords hide all tabs e-chords go to top tab