Limp Bizkit

home > Limp Bizkit

1999 Tab

Limp Bizkit

Difficulty: nolevelnolevel

by Teusalves

tuner correct add songbook print version text version save to e-mail
chordsukulelecavacokeyboardtabbassdrummharmonicsflute Guitar Pro
chords

1999

Key:  D# More
1999 Key A#A#
1999 Key BB
1999 Key CC
1999 Key C#C#(one step down)
1999 Key DD(half step down)
1999 Key D#D#(original key)
1999 Key EE(half step up)
1999 Key FF(one step up)
1999 Key F#F#
1999 Key GG
1999 Key G#G#
1999 Key AA
  		   Intro:  
  
    D#|------------------------------|  
    A#|------------------------------|   
    F#|------------------------------|    
    C#|------------------------------|  X 3  
    G#|------------------------------|   
    C#|-0-0-0-0-0-0----0---0-0--0-0--|   
  
    D#|-------------------------------------|  
    A#|-------------------------------------|   
    F#|-------------------------------------|    
    C#|-0-0---3-2-1---0---0-0----3-2-6------|  X 6  
    G#|-0-0---3-2-1---0---0-0----3-2-6------|   
    C#|-0-0---3-2-1---0---0-0----3-2-6------|   
     
    D#|----------------| /  
    A#|----------------|  /  
    F#|----------------|  Play this /  
    C#|-0-0---3-2-1--1-|  Every 3rd /   
    G#|-0-0---3-2-1--1-|  Time /  
    C#|-0-0---3-2-1--1-|  /  
   \__________/   
  
  
   Fame your claiming is... But this Stage i'm....  
   {fig. 1}  
    D#|-----------------------------------------|  
    A#|-----------------------------------------|   
    F#|-----------------------------------------|    
    C#|--11----------------------------------9--|    
    G#|-----------------------------------------|    
    D#|--11----------------------------------9--|    
   / /   
   Wrong chords if u know em' e-mail me please!_/   
  
  
   ...let's make something out of it..   
   {fig. 2}  
    D#|-------------------------------------|  
    A#|-------------------------------------|   
    F#|-------------------------------------|    
    C#|-0-0---3-2-1---0---0-0----3-2-6------|  X 6  
    G#|-0-0---3-2-1---0---0-0----3-2-6------|   
    C#|-0-0---3-2-1---0---0-0----3-2-6------|   
     
   bring it on...   
     
    D#|----------------| /  
    A#|----------------|  /  
    F#|----------------|  Play this /  
    C#|-0-0---3-2-1--1-|  Every 3rd /   
    G#|-0-0---3-2-1--1-|  Time /  
    C#|-0-0---3-2-1--1-|  /  
   \__________/   
  
  
  
  
   .... i've seen good things wasted...  
   {fig. 3}  
    D#|-------------|  
    A#|-------------|    
    F#|-------------|  It's Kinda Hard To know   
    G#|-------------|  when it'scoming but  
    C#|---0---0-0---|  listen for John hitting   
    G#|---0---0-0---|  the hi-hat once then   
    C#|---0---0-0---|  u come in, understand?   
  
  
   Bring it on, Bring it on...  
   {fig. 4}  
    D#|-------------------------------|  
    A#|-------------------------------|    
    F#|-------------------------------|  The rhythm  
    C#|--0----0-0--0-0---6-6-x-x--6---|  is hard   
    G#|--0----0-0--0-0---6-6-x-x--6---|  to write but   
    C#|--0----0-0--0-0---6-6-x-x--6---|  you'll get it just mess   
   around  
   with it!  
  
  
  
   you gotta be down with the g shock  
   {fig. 5}  
    D#|------------------------------------|  
    A#|------------------------------------|   
    F#|------------------------------------|    
    C#|-0-0-1-1-0-0----0-0----0---0---0-0--|    
    G#|-0-0-1-1-0-0----0-0----0---0---0-0--|    
    C#|-0-0-1-1-0-0----0-0----0---0---0-0--| 
	  

Search Paypal
auto scroll beats size up size down change color hide chords drawings
tab show chords e-chords YouTube Clip e-chords hide all tabs e-chords go to top tab