Lily Kershaw

home > Lily Kershaw

Maybe Tab

Lily Kershaw

Difficulty: nolevelnolevel

by aleffederico

tuner correct add songbook print version text version save to e-mail
chordsukulelecavacokeyboardtabbassdrumsharmonicsflute Guitar Pro
chords

Maybe

Key:  C More
Maybe Key GG
Maybe Key G#G#
Maybe Key AA
Maybe Key A#A#(one step down)
Maybe Key BB(half step down)
Maybe Key CC(original key)
Maybe Key C#C#(half step up)
Maybe Key DD(one step up)
Maybe Key D#D#
Maybe Key EE
Maybe Key FF
Maybe Key F#F#
  		
Intro 

    C                   G                Am 
e|---------------------------------------------------------------------------| 
B|-------1---------------3-------------1--------------1----------------------| 
G|---------0---------------0-------------2--------------2--------------------| 
D|----2------2--------0------0------2------2-------2------2------------------| 
A|--3---------------2-------------0--------------0---------------------------| 
E|---------------------------------------------------------------------------| 


Verse 

    C                   G                Am 
e|---------------------------------------------------------------------------| 
B|-------1---------------3-------------1--------------1----------------------| 
G|---------0---------------0-------------2--------------2--------------------| 
D|----2------2--------0------0------2------2-------2------2------------------| 
A|--3---------------2-------------0--------------0---------------------------| 
E|---------------------------------------------------------------------------| 
    F              C                G 
e|---------------------------------------------------------------------------| 
B|-------1--------------1---------------3---------------3--------------------| 
G|---------2--------------0---------------0---------------0------------------| 
D|----3------3-------2------2--------0------0--------0------0----------------| 
A|--3--------------3---------------2---------------2-------------------------| 
E|---------------------------------------------------------------------------| 
    F              C                G 
e|---------------------------------------------------------------------------| 
B|-------1--------------1---------------3---------------3--------------------| 
G|---------2--------------0---------------0---------------0------------------| 
D|----3------3-------2------2--------0------0--------0------0----------------| 
A|--3--------------3---------------2---------------2-------------------------| 
E|---------------------------------------------------------------------------| 
   Am                 F              C      
e|---------------------------------------------------------------------------| 
B|-------1---------------1-------------1--------------1----------------------| 
G|---------2---------------2-------------0--------------0--------------------| 
D|----2------2--------3------3------2------2-------2------2------------------| 
A|--0---------------3-------------3--------------3---------------------------| 
E|---------------------------------------------------------------------------| 


Chorus 

   F 
e|---------------------------------------------------------------------------| 
B|-------1--------------1--------------1--------------1----------------------| 
G|---------2--------------2--------------2--------------2--------------------| 
D|----3------3------3-------3------3-------3-------3------3------------------| 
A|--3-------------3--------------3---------------3---------------------------| 
E|---------------------------------------------------------------------------| 
   C                G                 F 
e|---------------------------------------------------------------------------| 
B|-------1--------------3--------------1--------------------1----------------| 
G|---------0--------------0--------------2--------------------2--------------| 
D|----2------2-------0------0-------3------3-------------3-------3-----------| 
A|--3--------------2--------------3--------------0h2/3-----------------------| 
E|---------------------------------------------------------------------------| 
   F 
e|---------------------------------------------------------------------------| 
B|-------1--------------1--------------1--------------1----------------------| 
G|---------2--------------2--------------2--------------2--------------------| 
D|----3------3------3-------3------3-------3-------3------3------------------| 
A|--3-------------3--------------3---------------3---------------------------| 
E|---------------------------------------------------------------------------| 
   C                G                 Am 
e|---------------------------------------------------------------------------| 
B|-------1--------------3--------------1----------------1--------------------| 
G|---------0--------------0--------------2----------------2------------------| 
D|----2------2-------0------0------2-------2--------2-------2----------------| 
A|--3--------------2-------------0--------------0h2--------------------------| 
E|---------------------------------------------------------------------------| 
   F                                                     C 
e|--------------------------------------------0------------------1h0---------| 
B|-------1--------------1--------------1-----------------1------------1------| 
G|---------2--------------2--------------2-----------------0-------------0---| 
D|----3------3------3-------3------3-------3---------2-------2-------------2-| 
A|--3-------------3--------------3-----------------3-------------------------| 
E|---------------------------------------------------------------------------| 


Verse 

    C                   G                Am 
e|---------------------------------------------------------------------------| 
B|-------1---------------3-------------1-----------------1-------------------| 
G|---------0---------------0-------------2-----------------2-----------------| 
D|----2------2--------0------0------2------2-------0h2-2-----2---------------| 
A|--3---------------2-------------0------------------------------------------| 
E|---------------------------------------------------------------------------| 
    F              C                G 
e|---------------------------------------------------------------------------| 
B|-------1--------------1---------------3---------------3--------------------| 
G|---------2--------------0---------------0---------------0------------------| 
D|----3------3-------2------2--------0------0--------0------0----------------| 
A|--3--------------3---------------2---------------2-------------------------| 
E|---------------------------------------------------------------------------| 
    F              C                G 
e|---------------------------------------------------------------------------| 
B|-------1--------------1---------------3---------------3--------------------| 
G|---------2--------------0---------------0---------------0------------------| 
D|----3------3-------2------2--------0------0--------0------0----------------| 
A|--3--------------3---------------2---------------2-------------------------| 
E|---------------------------------------------------------------------------| 
   Am                 F              C      
e|---------------------------------------------------------------------------| 
B|-------1---------------1-------------1--------------1----------------------| 
G|---------2---------------2-------------0--------------0--------------------| 
D|----2------2--------3------3------2------2-------2------2------------------| 
A|--0---------------3-------------3--------------3---------------------------| 
E|---------------------------------------------------------------------------| 


Chorus 

   F 
e|---------------------------------------------------------------------------| 
B|-------1--------------1--------------1--------------1----------------------| 
G|---------2--------------2--------------2--------------2--------------------| 
D|----3------3------3-------3------3-------3-------3------3------------------| 
A|--3-------------3--------------3---------------3---------------------------| 
E|---------------------------------------------------------------------------| 
   C                G                 F 
e|---------------------------------------------------------------------------| 
B|-------1--------------3--------------1--------------------1----------------| 
G|---------0--------------0--------------2--------------------2--------------| 
D|----2------2-------0------0-------3------3-------------3-------3-----------| 
A|--3--------------2--------------3--------------0h2/3-----------------------| 
E|---------------------------------------------------------------------------| 
   F 
e|---------------------------------------------------------------------------| 
B|-------1--------------1--------------1--------------1----------------------| 
G|---------2--------------2--------------2--------------2--------------------| 
D|----3------3------3-------3------3-------3-------3------3------------------| 
A|--3-------------3--------------3---------------3---------------------------| 
E|---------------------------------------------------------------------------| 
   C                G                 Am 
e|---------------------------------------------------------------------------| 
B|-------1--------------3--------------1----------------1--------------------| 
G|---------0--------------0--------------2----------------2------------------| 
D|----2------2-------0------0------2-------2--------2-------2----------------| 
A|--3--------------2-------------0--------------0h2--------------------------| 
E|---------------------------------------------------------------------------| 
   F                                                     C 
e|--------------------------------------------0------------------------------| 
B|-------1--------------1--------------1-----------------1-------------------| 
G|---------2--------------2--------------2-----------------0-----------------| 
D|----3------3------3-------3------3-------3---------2-------2---------------| 
A|--3-------------3--------------3-----------------3-------------------------| 
E|---------------------------------------------------------------------------| 
   C                G                              Am 
e|---------------------------------------------------------------------------| 
B|-------1--------------3--------------3--------------1----------------------| 
G|---------0--------------0--------------0--------------2--------------------| 
D|----2------2-------0------0------0-------0-------2------2------------------| 
A|--3--------------2-------------2---------------0---------------------------| 
E|---------------------------------------------------------------------------| 
   F                                                      
e|--------------------------------------------0------------------------------| 
B|-------1--------------1--------------1-------------------------------------| 
G|---------2--------------2--------------2-----------------------------------| 
D|----3------3------3-------3------3-------3---------------------------------| 
A|--3-------------3--------------3-------------------------------------------| 
E|---------------------------------------------------------------------------| 


Outro 

    F             C                G                 Am 
e|--0-----0------------------------------------------------------------------| 
B|--1-----1--------1--------------3--------------1----------------1----------| 
G|--2-----2----------0--------------0--------------2----------------2--------| 
D|--3-----3-----2------2-------0------0------2-------2--------2-------2------| 
A|--3-----3---3--------------2-------------0--------------0h2----------------| 
E|--X-----X------------------------------------------------------------------| 
   F 
e|---------------------------------------------------------------------------| 
B|-------1--------------1--------------1--------------1----------------------| 
G|---------2--------------2--------------2--------------2--------------------| 
D|----3------3------3-------3------3-------3-------3------3------------------| 
A|--3-------------3--------------3---------------3---------------------------| 
E|---------------------------------------------------------------------------|  
   C                G                 Am 
e|---------------------------------------------------------------------------| 
B|-------1--------------3--------------1----------------1--------------------| 
G|---------0--------------0--------------2----------------2------------------| 
D|----2------2-------0------0------2-------2--------2-------2----------------| 
A|--3--------------2-------------0--------------0h2--------------------------| 
E|---------------------------------------------------------------------------| 
   F                                                     C 
e|--------------------------------------------0------------------------------| 
B|-------1--------------1--------------1-----------------1-------------------| 
G|---------2--------------2--------------2-----------------0-----------------| 
D|----3------3------3-------3------3-------3---------2-------2---------------| 
A|--3-------------3--------------3-----------------3-------------------------| 
E|---------------------------------------------------------------------------| 
   G               Am                 F                   
e|--------------------------------------------0------------------------------| 
B|-------3------------1---------------1--------------------------------------| 
G|---------0------------2---------------2------------------------------------| 
D|----0------0-----2------2--------3------3----------------------------------| 
A|--2------------0---------------3-------------------------------------------| 
E|---------------------------------------------------------------------------|  
	  

Full key step upFull key step up
Half key step upHalf key step up
Half key step downHalf key step down
Full key step downFull key step down
Search Paypal
auto scroll beats size up size down change color hide chords drawings
tab show chords e-chords YouTube Clip e-chords hide all tabs e-chords go to top tab