Lil Wayne

Hot Revolver

Lil Wayne

tabs Expert expert

by  EUROPEU

save to print version add songbook text version e-mail correct tuner
chordsukulelecavacokeyboardtabbassdrumsharmonicaflute Guitar Pro
close

there isn't a video lesson for this song

chords

Hot Revolver

	  		Intro/Verse: 
e|-----------------------------------------------------------------------| 
B|-----------------------------------------------------------------------| 
G|-----------------------------------------------------------------------| 
D|-----------------------------------------------------------------------| 
A|-----------------------------------------------------------------------| 
E|-10-10-10-10-10-10-10-10-10-10-10-10-10-10-10-10-7777777777777777------| 

e|-----------------------------------------------------------------------| 
B|-----------------------------------------------------------------------| 
G|-----------------------------------------------------------------------| 
D|-----------------------------------------------------------------------| 
A|-----------------------------------------------------------------------| 
E|-10-10-10-10-10-10-10-10-10-10-10-10-10-10-10-10-7777777777777777------| 

e|--------------------------------------------------| 
B|--------------------------------------------------| 
G|--------------------------------------------------| 
D|--------------------------------------------------| 
A|--------------------------------------------------| 
E|-3333333377777777773333337775555555---------------| 

Do the above 4 times 

Little Solo bit: 
e|---9b10r9-----------9b10r9--12b14---| 
B|-7-------5h7------7-----------------| 
G|------------------------------------| 
D|------------------------------------| 
A|------------------------------------| 
E|------------------------------------| 

e|--------------------------------------------------| 
B|--------------------------------------------------| 
G|--------------------------------------------------| 
D|--------------------------------------------------| 
A|--------------------------------------------------| 
E|-3333333377777777773333337775555555---------------| 

Chorus: 

e|--------------------------------------------------| 
B|--------------------------------------------------| 
G|--------------------------------------------------| 
D|--------------------------------------------------| 
A|--12-12-12-12-9-9-9-9--12-12-12-12-9-9-9-9--------| 
E|--10-10-10-10-7-7-7-7--10-10-10-10-7-7-7-7--------| 


e|--------------------------------------------------| 
B|--------------------------------------------------| 
G|--------------------------------------------------| 
D|--------------------------------------------------| 
A|-5-5-9-9-9-9-5-5-9-777----------------------------| 
E|-3-3-7-7-7-7-3-3-7-555----------------------------| 


Verse: 
e|-----------------------------------------------------------------------| 
B|-----------------------------------------------------------------------| 
G|-----------------------------------------------------------------------| 
D|-----------------------------------------------------------------------| 
A|-----------------------------------------------------------------------| 
E|-10-10-10-10-10-10-10-10-10-10-10-10-10-10-10-10-7777777777777777------| 

e|-----------------------------------------------------------------------| 
B|-----------------------------------------------------------------------| 
G|-----------------------------------------------------------------------| 
D|-----------------------------------------------------------------------| 
A|-----------------------------------------------------------------------| 
E|-10-10-10-10-10-10-10-10-10-10-10-10-10-10-10-10-7777777777777777------| 

e|--------------------------------------------------| 
B|--------------------------------------------------| 
G|--------------------------------------------------| 
D|--------------------------------------------------| 
A|--------------------------------------------------| 
E|-3333333377777777773333337775555555---------------| 

Repeat The Above Twice. 

Chorus: 
Chorus: 

e|--------------------------------------------------| 
B|--------------------------------------------------| 
G|--------------------------------------------------| 
D|--------------------------------------------------| 
A|--12-12-12-12-9-9-9-9--12-12-12-12-9-9-9-9--------| 
E|--10-10-10-10-7-7-7-7--10-10-10-10-7-7-7-7--------| 


e|--------------------------------------------------| 
B|--------------------------------------------------| 
G|--------------------------------------------------| 
D|--------------------------------------------------| 
A|-5-5-9-9-9-9-5-5-9-777----------------------------| 
E|-3-3-7-7-7-7-3-3-7-555----------------------------| 
		  

See also:

tabs Eminem - Superman tabs Nelly - Ride Wit Me (ver. 3) tabs Soulja Boy - Crank Dat tabs The game & 50 cents - Hate it or love it tabs Gwen Stefani - What You Waiting For tabs Eamon - Fuck it
e-chords

Other versions:

tabs Lil Wayne - Hot Revolver
auto scroll beats size up size down change color hide chords drawings
tab show chords e-chords YouTube Clip e-chords hide all tabs e-chords go to top tab

share