LiL PEEP

home > LiL PEEP

16 Lines Tab

LiL PEEP

Difficulty: nolevelnolevel

by andrsouza

tuner correct add songbook print version text version save to e-mail
chordsukulelecavacokeyboardtabbassdrumsharmonicsflute Guitar Pro
chords

16 Lines

	  
Intro:Guitar 1 
e|--------------------|-------------------|-------------------|-------------------| 
B|--------------------|-------------------|-------------------|-------------------| 
G|--------------------|-------------------|-------------------|-------------------| 
D|-------2------------|-------2-----------|------2------------|------2-------5----| x2 
A|--3-----------------|--3-------3--------|--3----------------|--3------3---------| 
E|1----1--------------|0----0------0------|1---1--------------|0---0------0-------| 

e|--------------------|-------------------|-------------------|-------------------| 
B|--------------------|-------------------|-------------------|-------------------| 
G|--------------------|-------------------|-------------------|-------------------| 
D|-------2b3----------|-------2-----------|------2b3----------|------2-------5----| x2 
A|--3-----------------|--3-------3--------|--3----------------|--3------3---------| 
E|1----1--------------|0----0------0------|1---1--------------|0---0------0-------| 

Chorus:Guitar 1 
e|--------------------|-------------------|-------------------|-------------------| 
B|--------------------|-------------------|-------------------|-------------------| 
G|--------------------|-------------------|-------------------|-------------------| 
D|-------2------------|-------2-----------|------2------------|------2-------5----| x2 
A|--3-----------------|--3-------3--------|--3----------------|--3------3---------| 
E|1----1--------------|0----0------0------|1---1--------------|0---0------0-------| 

e|--------------------|-------------------|-------------------|-------------------| 
B|--------------------|-------------------|-------------------|-------------------| 
G|--------------------|-------------------|-------------------|-------------------| 
D|-------2b3----------|-------2-----------|------2b3----------|------2-------5----| x2 
A|--3-----------------|--3-------3--------|--3----------------|--3------3---------| 
E|1----1--------------|0----0------0------|1---1--------------|0---0------0-------| 

Bridge:Guitar 1 
e|--------------------|-------------------|-------------------|-------------------| 
B|--------------------|-------------------|-------------------|-------------------| 
G|--------------------|-------------------|-------------------|-------------------| 
D|-------2------------|-------2-----------|------2------------|------2-------5----| x6 
A|--3-----------------|--3-------3--------|--3----------------|--3------3---------| 
E|1----1--------------|0----0------0------|1---1--------------|0---0------0-------| 

Bridge:Guitar 2 
e|1----1--------------|------0-------0----|1---1--------------|--0---0------3---| 
B|------------0-------|--3-----3---3------|--------------0----|3---3----3-------| 
G|-------5------------|5---5-----5--------|---------5---------|-----------5-----| 
D|--------------------|-------------------|-------------------|-----------------| x6 
A|--------------------|-------------------|-------------------|-----------------| 
E|--------------------|-------------------|-------------------|-----------------| 

Outro:Guitar 1 
e|--------------------|-------------------|-------------------|-------------------| 
B|--------------------|-------------------|-------------------|-------------------| 
G|--------------------|-------------------|-------------------|-------------------| 
D|-------2b3----------|-------2-----------|------2b3----------|------2-------5----| x4 
A|--3-----------------|--3-------3--------|--3----------------|--3------3---------| 
E|1----1--------------|0----0------0------|1---1--------------|0---0------0-------| 



************************************ 

| b  Bend 

************************************ 
	  

there isn't a video lesson for this song

request
Search Paypal
auto scroll beats size up size down change color hide chords drawings
tab show chords e-chords YouTube Clip e-chords hide all tabs e-chords go to top tab