Like Monroe

So Beautiful

Like Monroe

tabs

by  AMAN_CLAUDINO

save to print version add songbook text version e-mail correct tuner
chordsukulelecavacokeyboardtabbassdrumsharmonicaflute Guitar Pro
close

there isn't a video lesson for this song

chords

So Beautiful

	  		Intro  

(0:01-0:15) 
Rhythm Guitar w/ Distortion 

E||-----------------------------------------------------------------| 
B||-----------------------------------------------------------------| 
G||--2--2--2--2--2--2--2--2--2--2--2--2--2--2--2--2-----------------| 
D||--2--2--2--2--2--2--2--2--2--2--2--2--2--2--2--2-----------------| (x4) 
A||--0--0--0--0--0--0--0--0--0--0--0--0--0--0--0--0-----------------| 
D||-----------------------------------------------------------------| 

E||-----------------------------------------------------------------| 
B||-----------------------------------------------------------------| 
G||--10-10-10-10-10-10-10-10-10-10-10-10-10-10-10-10----------------| 
D||--10-10-10-10-10-10-10-10-10-10-10-10-10-10-10-10----------------| (x2) 
A||--8--8--8--8--8--8--8--8--8--8--8--8--8--8--8--8-----------------| 
D||-----------------------------------------------------------------| 

E||-----------------------------------------------------------------| 
B||-----------------------------------------------------------------| 
G||--7--7--7--7--7--7--7--7--7--7--7--7--7--7--7--7-----------------| 
D||--7--7--7--7--7--7--5--7--7--7--7--7--7--7--7--7-----------------| (x2) 
A||--5--5--5--5--5--5--5--5--5--5--5--5--5--5--5--5-----------------| 
D||-----------------------------------------------------------------| 

Verse  

(0:16-0:45) 
         P.M.---------: 
E||-----------------------------------------------------------------| 
B|o-----------------------------------------------------------------| 
G||--2--2--2--2--2--2--2--2--2--2--2--2--2--2--2--2-----------------| 
D||--2--2--2--2--2--2--2--2--2--2--2--2--2--2--2--2-----------------| (x4) 
A|o--0--0--0--0--0--0--0--0--0--0--0--0--0--0--0--0-----------------| 
D||-----------------------------------------------------------------| 

         P.M.---------: 
E||-----------------------------------------------------------------| 
B||-----------------------------------------------------------------| 
G||--10-10-10-10-10-10-10-10-10-10-10-10-10-10-10-10----------------| 
D||--10-10-10-10-10-10-10-10-10-10-10-10-10-10-10-10----------------| (x2) 
A||--8--8--8--8--8--8--8--8--8--8--8--8--8--8--8--8-----------------| 
D||-----------------------------------------------------------------| 

         P.M.---------: 
E||-----------------------------------------------------------------|| 
B||-----------------------------------------------------------------o| 
G||--7--7--7--7--7--7--7--7--7--7--7--7--7--7--7--7-----------------|| 
D||--7--7--7--7--7--7--5--7--7--7--7--7--7--7--7--7-----------------||(x2) 
A||--5--5--5--5--5--5--5--5--5--5--5--5--5--5--5--5-----------------o| 
D||-----------------------------------------------------------------|| 


Chorus 

(0:51-1:05) 

E|-----------------------------------------------------------------| 
B|-----------------------------------------------------------------| 
G|--2~~~~~~~~~--2~~~~-2~~~~-2~~~~~~~~~--2~~~~-2~~~~----------------| 
D|--2~~~~~~~~~--2~~~~-2~~~~-2~~~~~~~~~--2~~~~-2~~~~----------------| (x2) 
A|--0~~~~~~~~~--0~~~~-0~~~~-0~~~~~~~~~--0~~~~-0~~~~----------------| 
D|-----------------------------------------------------------------| 


E|-----------------------------------------------------------------| 
B|-----------------------------------------------------------------| 
G|-----------------------------------------------------------------| 
D|--5~~~~~~~~~--5~~~~-5~~~~-5~~~~~~~~~--5~~~~-5~~~~----------------| (x2) 
A|--5~~~~~~~~~--5~~~~-5~~~~-5~~~~~~~~~--5~~~~-5~~~~----------------| 
D|--5~~~~~~~~~--5~~~~-5~~~~-5~~~~~~~~~--5~~~~-5~~~~----------------| 

E|-----------------------------------------------------------------| 
B|-----------------------------------------------------------------| 
G|-----------------------------------------------------------------| 
D|--0~~~~~~~~~--0~~~~-0~~~~-0~~~~~~~~~--0~~~~-0~~~~----------------| (x2) 
A|--0~~~~~~~~~--0~~~~-0~~~~-0~~~~~~~~~--0~~~~-0~~~~----------------| 
D|--0~~~~~~~~~--0~~~~-0~~~~-0~~~~~~~~~--0~~~~-0~~~~----------------| 

E|-----------------------------------------------------------------| 
B|-----------------------------------------------------------------| 
G|-----------------------------------------------------------------| 
D|--3~~~~-3~~~~-3~~~~-3~~~~-3~~~~-3~~~~-3~~~~-3~~~~----------------| 
A|--3~~~~-3~~~~-3~~~~-3~~~~-3~~~~-3~~~~-3~~~~-3~~~~----------------| 
D|--3~~~~-3~~~~-3~~~~-3~~~~-3~~~~-3~~~~-3~~~~-3~~~~----------------| 

E|-----------------------------------------------------------------| 
B|-----------------------------------------------------------------| 
G|-----------------------------------------------------------------| 
D|--5~~~~-5~~~~-5~~~~-5~~~~-5~~~~-5~~~~-5~~~~-5~~~~----------------| 
A|--5~~~~-5~~~~-5~~~~-5~~~~-5~~~~-5~~~~-5~~~~-5~~~~----------------| 
D|--5~~~~-5~~~~-5~~~~-5~~~~-5~~~~-5~~~~-5~~~~-5~~~~----------------| 


verse 2  

(1:06-...) 

E|-----------------------------------------------------------------| 
B|-----------------------------------------------------------------| 
G|--2~~~--2~~~--2~~~~~~--2~~~~-2-----2-----2~~~~~~-----------------| 
D|--2~~~--2~~~--2~~~~~~--2~~~~-2-----2-----2~~~~~~-----------------| (x2) 
A|--0~~~--0~~~--0~~~~~~--0~~~~-0-----0-----0~~~~~~-----------------| 
D|-----------------------------------------------------------------| 

*WIP* Still finishing the rest of the tabs~ 

*********************************** 
| /    Slide up 
| \    Slide down 
| h    Hummer-on 
| p    Pull-off 
| ~    Vibrato 
| P.M. Palm Mute 
*********************************** 
		  

See also:

tabs Bon Jovi - Wanted dead or Alive tabs Foo Fighters - Times Like These (versão original) tabs Foo Fighters - Everlong Acoustic tabs 4 Non Blondes - What's Up? tabs Simon & Garfunkel - Sounds of silence tabs Guns N' Roses - Estranged
e-chords

Other versions:

tabs Dashboard Confessional - So Beautiful tabs Like Monroe - So Beautiful tabs Dashboard Confessional - So beautiful (ver.2)
auto scroll beats size up size down change color hide chords drawings
tab show chords e-chords YouTube Clip e-chords hide all tabs e-chords go to top tab

share