Libido

Respirando

Libido

tabs Expert expert

by  PAULANTUNES

save to print version add songbook text version e-mail correct tuner
chordsukulelecavacokeyboardtabbassdrumsharmonicaflute Guitar Pro
close

there isn't a video lesson for this song

chords

Respirando

(Jauregui)

	  		             (Estos dos acordes 
              se tocan seguidos 
              despues de "los hombres 
              que sueñan") 


SIMBOLOGIA: 

 s= slide 
 h= hammer on 
 p= pull off 
 v= vibrato~ 
 b= bend 
 x= tocar la cuerda por encima 
 ()= nota fantasma 


SOLO: 01:23min 

   Em                   C*                 G 
E|---------------------------------------------------------- 
B|-------------------------8---8-10-8v---------------------- 
G|--------------7-7v----7-9---9----------------------------- 
D|--9-8-9-9-9-----------------------------9h7------9h7------ 
A|--------------------------------------------7-7-----7-7v-- 
E|---------------------------------------------------------- 

   G                        Em                 C* 
E|---------------------------------------------------------------- 
B|---------------------------------------------------------------- 
G|---------------------------9-7---------7-7v---7-------9-8-7v---- 
D|------7-7-7h9--9-9h7------------9-8---9---------9-8-7----------- 
A|-7-10---------------7------------------------------------------- 
E|---------------------------------------------------------------- 

     G                  G 
E|--------------------------------------------------- 
B|--------------------------------------------------- 
G|---------------------------------7-7s9-7-9p7s4-(4)- 
D|---9h7------9h7------------7s9--------------------- 
A|-------7-7-----7-7v---7-10------------------------- 
E|--------------------------------------------------- 

Riff1 
00:09min ^ 00:48min 

       G 
E|-------3-----------3s5-3???(0)------ 
B|---------3------3--3s5-3???(0)------ 
G|----0------0--0--------------------- 
D|--0--------------------------------- 
A|------------------------------------ 
E|------------------------------------ 

Riff2 
00:14min ^ 00:44min ^ 00:54min 

       G            C* 
E|----------0--------------0---------- 
B|------------0----------1---1-------- 
G|------0-------0------0-------------- 
D|--2---------------2----------------- 
A|------------------------------------ 
E|------------------------------------ 



Riff3 
00:19min ^ 00:58min 

       G        (rápido) 
E|-------3------3-3-3-3-3-3-3.. 
B|---------3----3-3-3-3-3-3-3?. 
G|----0--------------------- 
D|--0----------------------- 
A|-------------------------- 
E|-------------------------- 


Riff4 
00:23min ^ 01:02min ^ 
01:02min ^ 02:12min (ah ah donde van?) 

  (Muy rápido) 
E|-12-12-12-12-x-12?12-12-12-xx?------- 
B|-12-12-12-12-x-12?12-12-12-xx?------- 
G|-12-12-12-12-x-12?12-12-12-xx?------- 
D|-xx-xx-xx-xx-x-xx?xx-xx-xx-xx?------ 
A|-------------------------------- 
E|-------------------------------- 


Riff5 
00:38min ^ 01:49min 

E|------------------- 
B|-10bv------10------- 
G|------12------9v-9bv- 
D|-------------------- 
A|-------------------- 
E|-------------------- 

Cualquier cosa: [email protected]
		  

Full key step upFull key step up
Half key step upHalf key step up
Half key step downHalf key step down
Full key step downFull key step down
hide glossary

See also:

tabs Libido - Reset tabs Aeropajitas - Kaer tabs Amen - Rock And Roll tabs Libido - Esther Fes tabs Libido - Eterno tabs Amen - San Pedro
e-chords

Other versions:

tabs Libido - Respirando tabs Nação Zumbi - Respirando
auto scroll beats size up size down change color hide chords drawings
tab show chords e-chords YouTube Clip e-chords hide all tabs e-chords go to top tab

share