Libido

Reset

Libido

tabs

by  PAULANTUNES

save to print version add songbook text version e-mail correct tuner
chordsukulelecavacokeyboardtabbassdrumsharmonicaflute Guitar Pro
close

there isn't a video lesson for this song

chords

Reset

	  		estrofas: 
        e----------------------------- 
        B----------------------------- 
        G--4-4------------------------ 
        D--4-4-----------4-4-3-3-3---- 
        A--2-2-2-2-4-2-4-4-4-3-3-3---- 
        E----------------2-2-1-1-1---- 
	       \_______/ 

coros: 
        E-------------------------- 
        B-------------------------- 
        G--7-7-7-9-10-9-4-4-4------ 
        D--7-7-7-9-10-9-4-4-4------ 
        A--5-5-5-7-8--7-2-2-2------ 
        E-------------------------- 


        e---14--------16-14-------- 
        B-----15---15-------17-15----
		  

auto scroll beats size up size down change color hide chords drawings
tab show chords e-chords YouTube Clip e-chords hide all tabs e-chords go to top tab

share