Libido

Eterno

Libido

tabs

by  ALESBARRAS

save to print version add songbook text version e-mail correct tuner
chordsukulelecavacokeyboardtabbassdrumsharmonicaflute Guitar Pro
close

there isn't a video lesson for this song

chords

Eterno

	  		Autor: Líbido 


Libido 
eterno 
tab: [email protected] 
una canción muy "radiohead" ... 


e--1---1-0-----0---------0------0--0------------0--- 
B--3-------3---3-----3-----3----2----2----2s3-2---2- 
G--2-----------1---1---------1--2------2------------ 
D--0-----------2----------------2------------------- 
A-------------------------------0------------------- 
E--------------------------------------------------- 

tiempo, perdiendo el cabello 
duermo, existo y espero 
y tu... sigues aquí 

e--1------0------0---------0-------- 
B--3------3------2---2s3-2-2-------- 
G--2------1------2---------2-------- 
D--0------2------2---------2-------- 
A----------------0---------0-------- 
E----------------------------------- 

El frío rompe mis pies y mis latidos 
donde iran? 
no tengo miedo pero suspiro 
hasta el final 


        e---0-------0---- 
        B---1-------2---- 
        G---0-------2---- 
        D---2-------2---- 
        A---3-------0---- 
        E---------------- 

e------------------------------------------------- 
B---------------------------------------------8-7- 
G--------------------------------4-6-6s7~-7s9----- 
D--0s2s0----0s2s0-7~-7s9~--7-7~~------------------ 
A--------3~--------------------------------------- 
E------------------------------------------------- 
		 
e-s10~~~-10-10s12-12s13-15^^^^^^-15^^-13^^-12^^-10^- 
B--------------------------------------------------- 
G--------------------------------------------------- 
D--------------------------------------------------- 
A--------------------------------------------------- 
E--------------------------------------------------- 


e-9^-7^-5~----s10~~~-10-10s12-12s13-15^^^^-17^^^^^^- 
B--------------------------------------------------- 
G--------------------------------------------------- 
D--------------------------------------------------- 
A--------------------------------------------------- 
E--------------------------------------------------- 

vuelvo, llorando desnudo  
tus manos envuelven mi piel 
y yo... estoy feliz  ( distorsión ) 

e--1------0------0---------0-------- 
B--3------3------2---2s3-2-2-------- 
G--2--0---1------2---------2-------- 
D--0--1---2------2---------2-------- 
A----------------0---------0-------- 
E----------------------------------- 


Empieza a AMANECER y mil caminos 
puedo ver  
ahora PUEDO alcanzar y ser lo que 
siempre soñé 

AMANECER: 
e-s10~~~-10-10s12-12s13-15^^^^^^-15^^-13^^-12^^-10^- 
B--------------------------------------------------- 
G--------------------------------------------------- 
D--------------------------------------------------- 
A--------------------------------------------------- 
E--------------------------------------------------- 

              PUEDO... 
e-9^-7^-5~----s10~~~~~~~~~~~-10~~~-9~~~-7~~~-5~~---- 
B--------------------------------------------------- 
G--------------------------------------------------- 
D--------------------------------------------------- 
A--------------------------------------------------- 
E--------------------------------------------------- 


e----5----------------------------------- 
B------6---6------5-----5-------5----5--- 
G------------7------7-----7---7-----7---- 
D--7-----7------7-----7-----7-----7------ 
A---------------------------------------- 
E----------------------------------------
		  

auto scroll beats size up size down change color hide chords drawings
tab show chords e-chords YouTube Clip e-chords hide all tabs e-chords go to top tab

share