Libido

home > Libido

Como un Perro Tab

Libido

Difficulty: BeginnerBeginner

by joce4578

tuner correct add songbook print version text version save to e-mail
chordsukulelecavacokeyboardtabbassdrumsharmonicsflute Guitar Pro
chords

Como un Perro

  		Acordes: 
 
      G     ?     C     Em     E5*  E5   D5   C5 
e|----3-----3-----3-----0--------------------------| 
B|----3-----2-----2-----0--------------------------| 
G|----0-----3-----0-----0-----------9----7---5-----| 
D|----0-----2-----2-----2------2----9----7---5-----| 
A|----2-----0-----3-----2------2----7----5---3-----| 
E|----3-----------------0------0----x----x---x-----| 
 
 
Intro:    Se tocan dos compases de: { G - ? - C - E } 
          recién en el segundo compas entra la primera 
          guitarra, dando un solo toque. La segunda guitarra 
          va a estar repitiendo las mismas notas toda la 
          canción. 
 
          El bajo antes de empezar Salim a cantar, 
          para pasar a Sol, hace esto: 
    G|--------------------------| 
    D|--0h2-2-------------------| 
    A|--------2-0---------------| 
    E|------------3-------------| 
 
 
          Y empieza así: 
    G                       ? 
Discutes sin razón, quiere llevar el control 
        C                     Em 
en tus manos no no no voy a bailar 
 
    G                       ? 
Me haces sentir mal, luego yo pido perdón 
        C                            Em 
siendo tu la única culpable de la situación 
 
Riff 
       G          ?          C         Em 
    e|-3-----3----3-----3----3----3----0-----0-------| 
    B|-3--0---3---2--2---2---1--1--1---0--0---0------| 
    G|-0-0-0------3-3-3------0-0-0-----0-0-0---------| 
    D|-0----------2----------2---------2-------------| 
    A|-2----------0----------3---------2-------------| 
    E|-3-------------------------------0-------------| 
    { turututuuuuu           aaaaahhhhh aaaaaaahhhhhh 
 
  G                  ? 
No soy tu esclavo, solo sé que yo te amo 
  C                              Em 
no me trares como un perro, me quitaré solo el sombrero 
 
       G                      ? 
Y mis manos que harán, si tu piel me hace falta 
       C                              Em 
ya no tengo ni un amigo, Dios es mi único testigo 
 
Coro:    Para los coros, la primera guitarra va a tocar 
         el Riff, hasta que acabe el coro. 
 
      G                      ? 
Que puedo hacer para que me ames 
       C                     Em 
como yo te amo, como yo te amo 
     G                       ? 
Que puedo hacer para que me extrañes 
     C                              Em 
como yo te extraño, como yo te extraño 
 
         Ahora, la primera guitarra, da un toque en Sol, 
         y continua así. 
 
    e|------------------------------------------------| 
    B|-3h5-3b-----------------------------------------| 
    G|-----------0-3h5-3-0---0h3h0-----0h3-3-0--------| 
    D|---------------------3-------3-----------2-0-2--| 
    A|------------------------------------------------| 
    E|------------------------------------------------| 
 
    e|-----|------------------------------------------| 
    B|-----|------------------------------------------| 
    G|-----|--------9-x-9-9-9...---------9-x-9-9-9...-| 
    D|-14s-|-2-2-2--9-x-9-9-9...--2-2-2--9-x-9-9-9...-| 
    A|-14s-|-2-2-2--7-x-7-7-7...--2-2-2--7-x-7-7-7...-| 
    E|-12s-|-0-0-0----------------0-0-0---------------| 
                                                        
    e|------------------------------------------------| 
    B|------------------------------------------------| 
    G|--9s7-5-5-5-5-5---5s7-7s9----------9-x-9-9-9...-| 
    D|--9s7-5-5-5-5-5---5s7-7s9---2-2-2--9-x-9-9-9...-| 
    A|--7s5-3-3-3-3-3---3s5-5s7---2-2-2--7-x-7-7-7...-| 
    E|----------------------------0-0-0---------------| 
 
    e|------------------------------------------------| 
    B|------------------------------------------------| 
    G|---------9-x-9-9-9...---------9-x-9-9-9...------| 
    D|--2-2-2--9-x-9-9-9...--2-2-2--9-x-9-9-9...------| 
    A|--2-2-2--7-x-7-7-7...--2-2-2--7-x-7-7-7...------| 
    E|--0-0-0----------------0-0-0--------------------| 
                                                        
    e|------------------------------------------------| 
    B|------------------------------------------------| 
    G|--9s7-5-5-5-5-5---5s7-7s9----------9-x-9-9-9...-| 
    D|--9s7-5-5-5-5-5---5s7-7s9---2-2-2--9-x-9-9-9...-| 
    A|--7s5-3-3-3-3-3---3s5-5s7---2-2-2--7-x-7-7-7...-| 
    E|----------------------------0-0-0---------------| 
 
    e|---------10h12-10-12...--------10h12-10-12------| 
    B|------------------------------------------------| 
    G|------------------------------------------------| 
    D|--2-2-2-----------------2-2-2-------------------| 
    A|--2-2-2-----------------2-2-2-------------------| 
    E|--0-0-0-----------------0-0-0-------------------| 
 
    e|--12-10-10s12-15-15-------15-15-------15-15-----| 
    B|--------------------15s17-------15s17-----------| 
    G|------------------------------------------------| 
 
    e|--12-12h15--12-10----10-------------------------| 
    B|------------------12----12-12s5...--------------| 
    G|------------------------------------------------| 
                                       Que puedo hacer... 
                                       (la entiendes???) 
     G                      ? 
Que puedo hacer para que me ames 
       C                     Em 
como yo te amo, como yo te amo 
     G                       ? 
Que puedo hacer para que me extrañes 
     C                              Em 
como yo te extraño, como yo te extraño 
 
   G                      ? 
No quiero escribir, más canciones que te aturden 
     C                         Em 
mis poemas no los lees, dime Dios que me invento 
 
     G                    ? 
Como te enamoraré, si ya todo lo he intentado 
     C                                 Em 
Dime que es lo que ha faltado,dime en que te he defraudado. 
 

	  

Full key step upFull key step up
Half key step upHalf key step up
Half key step downHalf key step down
Full key step downFull key step down
Search Paypal
auto scroll beats size up size down change color hide chords drawings
tab show chords e-chords YouTube Clip e-chords hide all tabs e-chords go to top tab