Lewis Watson

Outgrow

Lewis Watson

tabs

by  AMAN_CLAUDINO

save to print version add songbook text version e-mail correct tuner
chordsukulelecavacokeyboardtabbassdrumsharmonicaflute Guitar Pro
close

there isn't a video lesson for this song

chords

Outgrow

	  		

just repeat these two bars throughout the whole song: 

bar 1: 
E|-----------------------------------1--------------                     
B|-----------1-------------------------------------- 
G|-----3-----------3-----3-----3-----------3-----3--    x2 
D|--0-----0-----0-----0-----0-----0-----0-----0----- 
A|-------------------------------------------------- 
E|-------------------------------------------------- 

bar 3: 
E|-----------------------------------3-------------- 
B|-----------3-------------------------------------- 
G|-----5-----------5-----5-----5-----------5-----5--    x2 
D|--0-----0-----0-----0-----0-----0-----0-----0----- 
A|-------------------------------------------------- 
E|-------------------------------------------------- 


(please feel free to make any corrections because i only tried to learn the song in like 20mins) 
tabbed by: mayavvard 
		  

See also:

tabs Douwe Bob - Mine Again tabs The Civil Wars - My Father's Father tabs Secrets - Sleep Well Darling tabs The Neighbourhood - Baby Came Home tabs Secrets - How We Survive tabs Twenty One Pilots - March To The Sea
e-chords

Other versions:

tabs Lewis Watson - Outgrow
auto scroll beats size up size down change color hide chords drawings
tab show chords e-chords YouTube Clip e-chords hide all tabs e-chords go to top tab

share