Letlive

That Fear Fever

Letlive

tabs

by  EDUCASTILHO

save to print version add songbook text version e-mail correct tuner
chordsukulelecavacokeyboardtabbassdrumsharmonicaflute Guitar Pro
close

there isn't a video lesson for this song

chords

That Fear Fever

	  		

Intro Chord 
D#|--5-------| 
A#|--6-------| 
F#|--7-------| 
C#|--7-------| 
G#|--5-------| 
C#|----------| 

(Bass riff) 

verse 1 
D#|----------------------------------------------| 
A#|----------------------------------------------| 
F#|------10-10-10-10--10-10-10-10-10-10-10-9-----| 
C#|----------------------------------------------| 
G#|------8--8--8--8---8--8--8--8--8--8--8--7-----| 
C#|-0-0------------------------------------------| 

D#|----------------------------------------------| 
A#|----------------------------------------------| 
F#|-14-14-14-14-12--14-14-14-14-12-10------------| 
C#|----------------------------------------------| 
G#|-12-12-12-12-10--12-12-12-12-10-8-------------| 
C#|----------------------------------------------| 

D#|----------------------------------------------| 
A#|----------------------------------------------| 
F#|-10-10-10-10-10-9---10-10-10-10-10-9----------| 
C#|----------------------------------------------| 
G#|-8--8--8--8--8--7---8--8--8--8--8--7----------| 
C#|----------------------------------------------| 

D#|----------------------------------------------| 
A#|----------------------------------------------| 
F#|-14-14-14-14-12--14-14-14-14-12-10------------| 
C#|----------------------------------------------| 
G#|-12-12-12-12-10--12-12-12-12-10-8-------------| 
C#|----------------------------------------------| 

Pre-Chorus 
D#|----------------------------------------------| 
A#|----------------------------------------------| 
F#|----------------------------------------------| 
C#|----------------------------------------------| 
G#|----------------------------------------------| 
C#|-3-3-3-0-3-3-3-0-2-2-2-2-2-2-2-2--------------| 

D#|----------------------------------------------| 
A#|-------------------13~------------------------| 
F#|-7~--9~--10~--12~-----------------------------| 
C#|----------------------------------------------| 
G#|----------------------------------------------| 
C#|----------------------------------------------| 

Chorus x2 
D#|----5-----------------------------------------| 
A#|----6-----------------------------------------| 
F#|----7-----------------------------------------| 
C#|--------------------------10-----7------------| 
G#|-5----5-5-5---------------10-x7--7-x7---------| 
C#|-------------7~-3~-0~-5~--10-----7------------| 

D#|----5-----------------------------------------| 
A#|----6-----------------------------------------| 
F#|----7-----------------------------------------| 
C#|--------------------------3-----2-------------| 
G#|-5----5-5-5---------------3-x7--2-x7----------| 
C#|-------------7~-3~-0~-5~--3-----2-------------| 

(Bass Riff, Just play open palm muted C#'s where needed) 

verse 2 
D#|----------------------------------------------| 
A#|----------------------------------------------| 
F#|------10-10-10-10--10-10-10-10-10-10-10-9-----| 
C#|----------------------------------------------| 
G#|------8--8--8--8---8--8--8--8--8--8--8--7-----| 
C#|-0-0------------------------------------------| 

D#|----------------------------------------------| 
A#|----------------------------------------------| 
F#|-14-14-14-14-12--14-14-14-14-12-10------------| 
C#|----------------------------------------------| 
G#|-12-12-12-12-10--12-12-12-12-10-8-------------| 
C#|----------------------------------------------| 

D#|----------------------------------------------| 
A#|----------------------------------------------| 
F#|-10-10-10-10-10-9---10-10-10-10-10-9----------| 
C#|----------------------------------------------| 
G#|-8--8--8--8--8--7---8--8--8--8--8--7----------| 
C#|----------------------------------------------| 

D#|----------------------------------------------| 
A#|----------------------------------------------| 
F#|-14-14-14-14-12--14-14-14-14-12-10------------| 
C#|----------------------------------------------| 
G#|-12-12-12-12-10--12-12-12-12-10-8-------------| 
C#|----------------------------------------------| 

Pre-Chorus 2 
D#|----------------------------------------------| 
A#|----------------------------------------------| 
F#|----------------------------------------------| 
C#|----------------------------------------------| 
G#|----------------------------------------------| 
C#|-3-3-3-0-3-3-3-0-2-2-2-2-2-2-2-2--------------| 

D#|----------------------------------------------| 
A#|-------------------------------13~------------| 
F#|-14~-12~-12b14--10~-9~-10~-12~----------------| 
C#|----------------------------------------------| 
G#|----------------------------------------------| 
C#|----------------------------------------------| 

Chorus x2 
D#|----5-----------------------------------------| 
A#|----6-----------------------------------------| 
F#|----7-----------------------------------------| 
C#|--------------------------10-----7------------| 
G#|-5----5-5-5---------------10-x7--7-x7---------| 
C#|-------------7~-3~-0~-5~--10-----7------------| 

D#|----5-----------------------------------------| 
A#|----6-----------------------------------------| 
F#|----7-----------------------------------------| 
C#|--------------------------3-----2-------------| 
G#|-5----5-5-5---------------3-x7--2-x7----------| 
C#|-------------7~-3~-0~-5~--3-----2-------------| 

Break 
D#|----------------------------------------------| 
A#|----------------------------------------------| 
F#|----------------------------------------------| 
C#|----------------------------------------------| 
G#|---3s5----3s5----3s5----3s5-------------------| 
C#|-0------0------0------0-----------------------| 

Badass Breakdown x3 
D#|----------------------------------------------| 
A#|----------------------------------------------| 
F#|-------------------------3+-------------------| 
C#|----------------------------5+----------------| 
G#|---3s5-------------------------5+-------------| 
C#|-0------0--8-0-7s3--5~-6~---------------------| 

Chorus x2 
D#|----5-----------------------------------------| 
A#|----6-----------------------------------------| 
F#|----7-----------------------------------------| 
C#|--------------------------10-----7------------| 
G#|-5----5-5-5---------------10-x7--7-x7---------| 
C#|-------------7~-3~-0~-5~--10-----7------------| 

D#|----5-----------------------------------------| 
A#|----6-----------------------------------------| 
F#|----7-----------------------------------------| 
C#|--------------------------3-----2----7+-------| 
G#|-5----5-5-5---------------3-x7--2-x7----------| 
C#|-------------7~-3~-0~-5~--3-----2-------------| 

And thats pretty much it. 

************************************ 

| /   slide up 
| \   slide down 
| h   hammer-on 
| p   pull-off 
| ~   vibrato 
| +   harmonic 
| x   Mute note 
| b   Bend 
| pb  Pre-bend 
| br  Bend release 
| pbr Pre-bend release 
| brb Bend release bend 

************************************ 
		  

See also:

tabs Bon Jovi - It's My Life tabs Foo Fighters - Learn to Fly (acoustic version) tabs Jack Johnson - Good People tabs The Offspring - Pretty Fly (For a White Guy) tabs Guns N' Roses - Godfather Theme tabs Guns N' Roses - Nightrain
e-chords

Other versions:

tabs Letlive - That Fear Fever
auto scroll beats size up size down change color hide chords drawings
tab show chords e-chords YouTube Clip e-chords hide all tabs e-chords go to top tab

share