Less Than Jake

Look What Happened

Less Than Jake

tabs

save to print version add songbook text version e-mail correct tuner
chordsukulelecavacokeyboardtabbassdrumsharmonicaflute Guitar Pro
close

there isn't a video lesson for this song

chords

Look What Happened

	  		 
Afinação: E 
 
Intro (baixo)  
 
Entra em 0:28 
 
 (2xs) 
E----------------------------- 
B----------------------------- 
G-----9-----------99999-8-9--- 
D-----9-------9--------------- 
A-222-7--9999-9---77777-6/7--- 
E-000----7777-7--------------- 
  pm      pm 
 
E----------------------------- 
B----------------------------- 
G-----9-----------88-8-88-8--- 
D-----9-------9---99-9-99-9--- 
A-222-7--9999-9---pm---pm----- 
E-000----7777-7--------------- 
  pm      pm 
 
E------------------------------------------ 
B------------------------------------------ 
G------------------------------------------ 
D-999999-9999999-9/777777-7/999999-9------- 
A--------------------------------------2--- 
E-777777-7777777-7/555555-5/777777-7---0--- 
 
Verso (4xs) 
 
E--------------------------------------- 
B--------------------------------------- 
G--------------------------------------- 
D-------------------44444444-22222222--- 
A-22222222222222222-22222222-00000000--- 
E-00000000000000000--------------------- 
 
Refrão (4xs) 
 
E--------------------------- 
B--------------------------- 
G-----4-2--------22-44444--- 
D-2---4-2----4---22-44444--- 
A-2---2-0----4---00-22222--- 
E-0----------2-------------- 
 
Verso 
 
Refrão 
 
Bridge (sem guitarra) 
 
Refrão (4xs) 
 
Final 
 
E----------------------------- 
B----------------------------- 
G----------------------------- 
D----------------------------- 
A-2--6-777-666---4--666-444--- 
E-0--4/555-444---2--444-222--- 
 
E-----------------------------------------------0000-0000----- 
B-----------------------------------------------0000-0000----- 
G-----9-----------99999-8-9---------9-----------0000-0000-1--- 
D-----9-------9---------------------9-------9---4444-2222-2--- 
A-222-7--9999-9---77777-6/7-----222-7--9999-9---2222-0000-2--- 
E-000----7777-7-----------------000----7777-7-------------0--- 
  pm      pm                    pm      pm 
 
----------------------------------------------------------------- 
"And I swear it´s the last time" 
[email protected] 
 
 
_______________________________________________________ 
Contribuição: Gabriel Vendramini([email protected]) 

		  

Full key step upFull key step up
Half key step upHalf key step up
Half key step downHalf key step down
Full key step downFull key step down
auto scroll beats size up size down change color hide chords drawings
tab show chords e-chords YouTube Clip e-chords hide all tabs e-chords go to top tab

share