Leo Can Dive

Sail Away

Leo Can Dive

tabs

by  ANG-LETRA

save to print version add songbook text version e-mail correct tuner
chordsukulelecavacokeyboardtabbassdrumsharmonicaflute Guitar Pro
close

there isn't a video lesson for this song

chords

Sail Away

	  		

Tuning: Drop D 

e|---------------------------------------------------------------------------| 
B|---------------------------------------------------------------------------| 
G|-6-6-6-6-------------------------------------------------------------------| 
D|-6-6-6-6--6-6-6-6--8-8-8-8--3-3-3-3--1-1--4-4--1-1--4-4--6-6-6-6--7-7-7-7--| 
A|-4-4-4-4--6-6-6-6--8-8-8-8--3-3-3-3--1-1--4-4--1-1--4-4--6-6-6-6--7-7-7-7--| 
E|----------6-6-6-6--8-8-8-8--3-3-3-3--1-1--4-4--1-1--4-4--6-6-6-6--7-7-7-7--| 

e|---------------------------------------------------------------------------| 
B|---------------------------------------5-----------------------------------| 
G|-6-6-6-6-----------------------------6-6-----------------------------------| 
D|-6-6-6-6--6-6-6-6--8-8-8-8--3-3-3-3--6-6-----------------------------------| 
A|-4-4-4-4--6-6-6-6--8-8-8-8--3-3-3-3--4-4-----------------------------------| 
E|----------6-6-6-6--8-8-8-8--3-3-3-3----------------------------------------| 
 
		  

Full key step upFull key step up
Half key step upHalf key step up
Half key step downHalf key step down
Full key step downFull key step down
hide glossary

See also:

tabs Deep Purple - Strange kind of woman tabs Deep Purple - Smoke On The Water tabs Deep Purple - Time To Kill tabs Albert Hammond Jr - Gfc tabs Deep Purple - Soldier Of Fortune tabs Ira! - Nucleo De Base
e-chords

Other versions:

tabs David Gray - Sail Away tabs Deep Purple - Sail Away tabs The Rasmus - Sail Away tabs Leo Can Dive - Sail Away tabs The Rasmus - Sail away (acoustic)
auto scroll beats size up size down change color hide chords drawings
tab show chords e-chords YouTube Clip e-chords hide all tabs e-chords go to top tab

share