Legião Urbana

Índios

Legião Urbana

tabs Beginner beginner

by  _SANTIAGO_

save to print version add songbook text version e-mail correct tuner
chordsukulelecavacokeyboardtabbassdrumsharmonicaflute Guitar Pro
close

there isn't a video lesson for this song

chords

Índios

Year: 1986 - Album: Dois

(Renato Russo)

Key:  Dm More
Índios Key AmAm
Índios Key A#mA#m
Índios Key BmBm
Índios Key CmCm(one step down)
Índios Key C#mC#m(half step down)
Índios Key DmDm(original key)
Índios Key D#mD#m(half step up)
Índios Key EmEm(one step up)
Índios Key FmFm
Índios Key F#mF#m
Índios Key GmGm
Índios Key G#mG#m
	  		Introdução (Acústico Mtv): 
*(~)= (Deixar soar um pouco) 
 
e|---3---3-3-----5--7--2-~----------------------| 
B|----------------------------5-3----3----------|  ( 3 Vezes) 
G|---4--4-4-4----5--7--3-~----5-4--4--4---------| 
D|----------------------------------------------| 
 
e|---3-2-3-~--3-2-3--|----3-2-3-~--3-2-3--|----5-3-5-~--5-3-5--|----5-3-5-~--5-3-5-| 
B|-1-----1-----------|--1-----1-----------|--3-----3-----------|--3-----3----------| 
 
e|---7-5-7-~--7-5-7--|----7-5-7-~--7-5-7--|----7-5-7-~--7-5-7--|----7-5-7-~--7-5-7-| 
B|-3-----3-----------|--3-----3-----------|--5-----5-----------|--5-----5----------| 
 
e|---8-7-8-~--8-7-8--|----8-7-8-~--8-7-8--|----8-7-8-~--8-7-8--|----8-7-8-~--8-7-8-| 
B|-5-----5-----------|--5-----5-----------|--7-----7-----------|--7-----7----------| 
 
e|---10-8-10-~--10-8-10--|----10-8-10-~--10-8-10--| 
B|-7------7--------------|--7------7--------------| 
 
e|---10-8-10-~--10-8-10--|----10-8-10-~--10-8-10--| 
B|-8------8--------------|--8------8--------------| 
 


 segunda parte 
 
 
B|---8-7-8---8-7-8---8-7-8---8-7-8----10-8-10---10-8-10---10-8-10---10-8-10-| 
G|-5-------5-------5-------5--------7---------7---------7----------7--------| 
 
B|---12-10-12---12-10-12----12-10-12---12-10-12-- e|--7-5-7---7-5-7---7-5-7---7-5-7-| 
G|-9----------9-----------9----------9----------- B|-5-------5-------5-------5------- | 
 
e|---8-7-8---8-7-8---8-7-8---8-7-8----8-7-8---8-7-8---8-7-8---8-7-8-| 
B|-5-------5-------5-------5--------7-------7-------7-------7-------| 
 
e|---10-8-10---10-8-10---10-8-10---10-8-10-| 
B|-7---------7---------7---------7---------| 
 
e|---10-8-10---10-8-10---10-8-10---10-8-10-| 
B|-8---------8---------8---------8---------| 
		  

See also:

tabs Engenheiros do Hawaii - Refrão de Bolero (Acústico MTV) tabs Titãs - É preciso saber viver (2) tabs Paralamas do Sucesso - Alagados tabs Los Hermanos - Anna Julia tabs Raimundos - Selim Acústico tabs Legião Urbana - Será
e-chords

Other versions:

tabs Legião Urbana - Índios tabs Legião Urbana - Índios (ver. 2) tabs Legião Urbana - Índios (Ver. Acústico MTV)
auto scroll beats size up size down change color hide chords drawings
tab show chords e-chords YouTube Clip e-chords hide all tabs e-chords go to top tab

share