Led Zeppelin

home > Led Zeppelin

Trampled Underfoot (ver. 2) Tab

Led Zeppelin

Difficulty: nolevelnolevel

tuner correct add songbook print version text version save to e-mail
chordsukulelecavacokeyboardtabbassdrumsharmonicsflute Guitar Pro
chords

Trampled Underfoot (ver. 2)

  		Transcribed by lunchbox 
 
  
 
  
 
Gtr I (E A D G B E) - 'Untitled' 
Gtr II (E A D G B E) - 'Untitled' 
 
 
  Q=195 
 4/4 
  Gtr I 
  q  q  q  q    E  E  e E E E E E   q  q  q  q    E  E  E a q  E E 
|-------------|-------------------|-------------|-------------------| 
|-------------|-------------------|-------------|---------5h6--5s3--| 
|----0-----0--|-0h=3----0---0-0---|----0-----0--|-0h=3----5h6--5s3--| 
|----0-----0--|-0-(0)---3---3s5---|----0-----0--|-0-(0)-------------| 
|-------------|-------------------|-------------|-------------------| 
|-3-----3-----|-------3-----------|-3-----3-----|-------3-----------| 
 
 
  E     q  q  q  q    E  E  e E E E E E  6x 
|---||--------------|--------------------||-| 
|---||o-------------|-------------------o||-| 
|---||-----0-----0--|-0h=3----0---0-0----||-| 
|-5-||-----0-----0--|-0-(0)---3---3s5----||-| 
|---||o-------------|-------------------o||-| 
|---||--3-----3-----|-------3------------||-| 
 
 
   Q.   Q  E E E   Q.   Q  E E E 
|-------6--6---6-|------8--8---8-| 
|----------------|---------------| 
|-/7---------7---|-9---------9---| 
|----------------|---------------| 
|----------------|---------------| 
|----------------|---------------| 
 
 
                     H 
                     | 
                     / 
 
    q   q   q  q     E  E   e  E  E  E  E 
||----------------|-------------------------|| 
||o---------------|------------------------o|| 
||------3------3--|--0h=3------0-----0--0---|| 
||------3------3--|--0-(0)-----3-----3s=5---|| 
||o---------------|------------------------o|| 
||--3-------3-----|---------3---------------|| 
| 
|   Gtr II 
|   Q   q   q  Q     E  E   E  e  E  E  q 
||-----10--10-----|-------------------------|| 
||o----10--11-----|------------------------o|| 
||----------------|-10h12-----10----10-12---|| 
||----------------|--------12----12---------|| 
||o---------------|------------------------o|| 
||----------------|-------------------------|| 
 
 
   Q.   Q  E E E   Q.   Q  E E E 
|-------6--6---6-|------8--8---8-| 
|----------------|---------------| 
|-/7---------7---|-9---------9---| 
|----------------|---------------| 
|----------------|---------------| 
|----------------|---------------| 
 
 
    Q.    Q   E  E  E    Q.    Q   E  E  E 
|--------11--11----11-|-------13--13----13-| 
|---------------------|--------------------| 
|-/12-----------12----|-14-----------14----| 
|---------------------|--------------------| 
|---------------------|--------------------| 
|---------------------|--------------------| 
 
 
  Q=141 
  H     Q   E  E    +Q   q  q  q 
|-----------------|---------------| 
|-------3------3--|-(3)--1--1--1--| 
|-0-----0------0--|-(0)--0--0--0--| 
|-0----(0)----(0)-|-(0)-----------| 
|-----------------|---------------| 
|-3----(3)----(3)-|-(3)-----------| 
  H    +Q.    +E    +W 
 
 
  Q  Q  Q   E    E    +E   E  q  q  q 
|-------------------|-------------------|----| 
|----3--3--------3--|-(3)--3--1--1--1---|----| 
|----0--0--------0--|-(0)--0--0--0--0---|----| 
|----0-----(0)--(0)-|-----(0)-----------|----| 
|-------------------|-------------------|----| 
|----3-----(3)--(3)-|-----(3)-----------|----| 
     H     +Q.  +E         W 
 
 
 
 
-------------------------------------------------------------------------------- 
 
 
Duration Legend 
--------------- 
W - whole; H - half; Q - quarter; E - 8th; S - 16th; T - 32nd; X - 64th; a - acciaccatura 
+ - note tied to previous; . - note dotted; .. - note double dotted 
Uncapitalized letters represent notes that are staccato (1/2 duration) 
Irregular groupings are notated above the duration line 
Duration letters will always appear directly above the note/fret number it represents the 
duration for.  Duration letters with no fret number below them represent rests.  Multi- 
bar rests are notated in the form Wxn, where n is the number of bars to rest for.  Low 
melody durations appear below the staff 
 
Tablature Legend 
---------------- 
 h   - hammer-on 
 p   - pull-off 
 b   - bend 
 pb  - pre-bend 
 r   - bend release (if no number after the r, then release immediately) 
 /\  - slide into or out of (from/to "nowhere") 
 s   - legato slide 
 S   - shift slide 
 - natural harmonic 
{n}  - artificial harmonic 
n(n) - tapped harmonic 
 ~   - vibrato 
 tr  - trill 
 T   - tap 
 TP  - trem. picking 
 PM  - palm muting 
\n/  - tremolo bar dip; n = amount to dip 
 \n  - tremolo bar down 
 n/  - tremolo bar up 
/n\  - tremolo bar inverted dip 
 =   - hold bend; also acts as connecting device for hammers/pulls 
 <> - volume swell (louder/softer) 
 x   - on rhythm slash represents muted slash 
 o   - on rhythm slash represents single note slash 
 
Misc Legend 
----------- 
 |  - bar 
||  - double bar 
||o - repeat start 
o|| - repeat end 
*|  - double bar (ending) 
 :  - bar (freetime) 
 $  - Segno 
 &  - Coda 
Tempo markers -  = BPM(8/16=s8/s16), where s8 = swing 8ths, s16 = swing 16ths 
	  

Search Paypal
auto scroll beats size up size down change color hide chords drawings
tab show chords e-chords YouTube Clip e-chords hide all tabs e-chords go to top tab