Led Zeppelin

home > Led Zeppelin

The Lemon Song Tab

Led Zeppelin

Difficulty: ExpertExpert

by miss%2Dtyler

tuner correct add songbook print version text version save to e-mail
chordsukulelecavacokeyboardtabbassdrummharmonicsflute Guitar Pro
chords

The Lemon Song

Year: 1969 - Album: Led Zeppelin II

	  THE LEMON SONG Guitar Tab 
 
Standard Tuning 
 
With pick and fingers                                         ~~~~~~~~ 
E|--0--0---0--0---0--0---0----------------------------------------------------- 
B|--0--0---0--0---0--0---0------------8-------X-------X------8---------(8)\---- 
G|------------------------------------7-------X-------X------7---------(7)\-\-- 
D|------------------------------------6-------X-------X------6---------(6)\-\-- 
A|------------------------------------7-------X-------X------7---------(7)\-\-- 
E|--0--0---4--4---5--5---7\-------0-----------------------------------------\-- 
 
E|0--0---0--0---0--0---0--------------------------------------------------- 
B|0--0---0--0---0--0---0------------8----X----X----8--------12------12--12- 
G|----------------------------------7----X----X----7--------12------12--12- 
D|----------------------------------6----X----X----6----12--12------12--12- 
A|----------------------------------7----X----X----7------------14--------- 
E|0--0---4--4---5--5---7--------0------------------------------------------ 
 
 
E|-----------0--0---0--0---0--0---0----------------------------------------- 
B|--(12)\----0--0---0--0---0--0---0------------8----X----X----8-----------3- 
G|--(12)\--------------------------------------7----X----X----7---0--2^4---- 
D|--(12)\--------------------------------------6----X----X----6------------- 
A|---------------------------------------------7----X----X----7------------- 
E|-----------0--0---4--4---5--5---7-------0--------------------------------- 
    
			             Let Ring                      
E|-----------------------------------0--0---0--------------------------------- 
B|-----------------------------------0--0---0------0------8----X----X----8---- 
G|-----2^4^2^0--------------------------------------------7----X----X----7---- 
D|-------------2^0----------------------------------------6----X----X----6---- 
A|--------------------------------------------------------7----X----X----7---- 
E|---------------------0--0---4--4---5--5---7------0-------------------------- 
         I should have quit you                                 a long time ago 
 
	 even gliss.                                                  ~~~~    
E|-------/-----------------------0--0---0--0---0--0---0--------------------- 
B|--(8)/-/-----------------------0--0---0--0---0--0---0---0-----8-----X----- 
G|--(7)/-/------------------------------------------------------7-----X----- 
D|--(6)/-/------------------------------------------------------6-----X----- 
A|--(7)/--------------------------------------------------------7-----X----- 
E|-------------------------------0--0---4--4---5--5---7---0----------------- 
                                                                          
										 
E|-----------------------------------0--0---0--0---0---------------------|---- 
B|--8--------------------------------0--0---0--0---0---------------------|---- 
G|--7----------------------------------------------------------2-----(2)-|---- 
D|--6------------0---------------------------------------------2------2--|---- 
A|--7------0--2------0--2-----0--0---4--4---5--5---7-----0-----0------X-/----- 
E|--------------------------------------------------------------------3------- 
           Oh                 oh     yeah   yeah                   long time ago 
 
                                                     _    _          ~~~~~ 
E|---\------------------0--0---0--0---0--0---0---0-------------------------- 
B|----|-----------------0--0---0--0---0--0---0---0------8----X---X----8----- 
G|----|-------------------------------------------------7----X---X----7----- 
D|------------------------------------------------------6----X---X----6----- 
A|------------------------------------------------------7----X---X----7----- 
E|--------(3)-----------0--0---4--4---5--5---7---0-------------------------- 
 
                                                      - -      - - 
E|---------------------------------------------------)----|---|---|---------- 
B|----------------------------------3-----3--------15----15--15--15------12-- 
G|-------------------------------2--------0---------------------------------- 
D|----------------------------1-----------2---------------------------------- 
A|-------------------------2-----------0--0---------------------------------- 
E|---0-----4----5----6------------------------------------------------------- 
     I wouldn't be         here not here   down on this killing floor 
 
 
E|---------------------------------------------------------------------------- 
B|-----12--------------------------------------------------------------------- 
G|--14-----12-------------------12-------------------------------------------- 
D|-------------14---12--13--14-------14--12-----------------12---------------- 
A|----------------------------------------------12--13--14------14--(14)\----- 
E|---------------------------------------------------------------------------- 
                                                                 I should have                    
 
                                     ~~~       ~~~ 
E|-0--0---0--0---0--0---0----0----------------------------------/----------- 
B|-0--0---0--0---0--0---0----0------8---------8------------(8)/-/----------- 
G|----------------------------------7----0----7------------(7)/-/----------- 
D|----------------------------------6-----0---6------------(6)/-/----------- 
A|----------------------------------7---------7------------(7)/------------- 
E|-0--0---4--4---5--5---7----0----------------------------------------0--0-- 
  listened baby                                       to my second    mind 
 
							  ~~~               
E|--0--0---0--0---0----0--------------------------------------------------- 
B|--0--0---0--0---0----0-----8----------8---(8)\--------3------------------ 
G|---------------------------7----------7---(7)\-0--2^4---4^2^0------------ 
D|---------------------------6----------6---(6)\----------------2^0-------- 
A|---------------------------7----------7---(7)\--------------------------- 
E|--4--4---5--5---7----0--------------------------------------------------- 
                                                        Oh     
 
                                                        -  -       ~~~ 
E|-------------0-------0---0--0---0-------------------|-----|---------------0-- 
B|-------------0-------0---0--0---0-------------------|-----|---------------0-- 
G|-------------------------------------------2--------|-----|------------------ 
D|-------------------------------------------2----2---|-----|------------------ 
A|----0----0---4-------4---5--5---7----0-----0----X--/------------------------- 
E|------------------------------------------------3/--------------3------0--0-- 
       I should have listened baby                   to my second mind 
 
							      
E|--0--0---0-----0----0-------------------------------------- 
B|--0--0---0-----0----0-----0-----8-------X-----8------------ 
G|--------------------------------7-------X-----7------------ 
D|--------------------------------6-------X-----6------------ 
A|--------------------------------7-------X-----7------------ 
E|--4--4---5-----5----7-----0-------------------------------- 
 
 
                                                 - -      - - 
E|-----------------------------------------0----)----|---|----|----------- 
B|--------------------3--------------2--------15----15--15---15---15--12--- 
G|--------------------2-----------0---------------------------------------- 
D|--------------------1------------------0--------------------------------- 
A|------0--1--2---2---2--------0------------------------------------------- 
E|0--4--------------------------------------------------------------------- 
           Everytime I go away and leave you darling   Send me the blues fresh out of lie 
 
 
E|--------------------------------------16--16\---------16--16--14--12--12\---- 
B|-------------)--------------------------------------------------------------- 
G|14----X----12--------\----------------16--16\-----16------16--14--13--13\---- 
D|------------------14----\---------------------------------------------------- 
A|---------------------------\------------------------------------------------- 
E|----------------------------------------------------------------------------- 
  Oh 
 
						   ~~~~~~~~                  
E|-------12--12--14--15--16-------------16------14--12--12\-----------17--17 
B|-------------------------------------------------------------------------- 
G|--/13------13--14--15--16---------16------16--14--13--13\-------18------18 
D|-------------------------------------------------------------------------- 
A|-------------------------------------------------------------------------- 
E|-------------------------------------------------------------------------- 
 
                                       ~~~~~~                                                          
E|---19--21--21------------21--21--19--17--17\----------12--12--14--16---16--- 
B|---------------------------------------------------------------------------- 
G|---19--21--21--------21------21--19--18--18\------13------13--14--16---16--- 
D|---------------------------------------------------------------------------- 
A|---------------------------------------------------------------------------- 
E|---------------------------------------------------------------------------- 
 
	  ~~~~~~ 
E|--16---------16---16--14--12--12\--------17------17------17------17\-----15- 
B|-------------------------------------16------16------16------16-------14---- 
G|--16---------16---16--14--13--13\------------------------------------------- 
D|---------------------------------------------------------------------------- 
A|---------------------------------------------------------------------------- 
E|---------------------------------------------------------------------------- 
 
E|----15-----15-----15-----15----------------------------------------------- 
B|-14-----14-----14-----14--------15-----15-----15-15----15------15--------- 
G|-----------------------------13-----13-----13-------13------13--------14-- 
D|-------------------------------------------------------------------13----- 
A|-------------------------------------------------------------------------- 
E|-------------------------------------------------------------------------- 
 
									     
E|-------------------------------------------------------------------------- 
B|-----------------------12------------------------------------------12----- 
G|-------14-----14--/16------14-14--12--12-----14-(14)\-------14^16-----14-- 
D|----13-----13------------------------------------------------------------- 
A|-------------------------------------------------------------------------- 
E|-------------------------------------------------------------------------- 
 
    ~~~~                                                                       
E|------------------------------12-------------------------------------------- 
B|-----------)------------------12---12-------------------------12---12------- 
G|---14-12-14-------12------------------14-12--12------14---------------14-12- 
D|------------------------14-14----------------------------------------------- 
A|---------------------------------------------------------------------------- 
E|---------------------------------------------------------------------------- 
 
 
E|----------12-----------12-----------12-----------12-------------12---------- 
B|------)------15-12---)----15-12---)----15^12---)----15-12----12----15^12---- 
G|----14-------------14-----------14-----------14-----------14---------------- 
D|---------------------------------------------------------------------------- 
A|---------------------------------------------------------------------------- 
E|---------------------------------------------------------------------------- 
 
 
E|-------------------------------------------------------------------------- 
B|-------------------------------------------------------------------------- 
G|-14^12------------------------------------------------------------12-14-12 
D|-------14^12---------------------------------------------12-13-14----14-12 
A|-------------14^12\10----10^12^10-13^13-10--10-10-12/14------------------- 
E|----------------------12-------------------------------------------------- 
 
									    
E|-------------------------------------------12-------)-----------)------|- 
B|----------------------------------)--12--------15-15----------14)-----14- 
G|--14/15-12-14-15-12----12----12-14----------------------------14--------- 
D|--------------------14----14--------------------------------------------- 
A|------------------------------------------------------------------------- 
E|------------------------------------------------------------------------- 
									    
  			   ~~~~~ 
E|-----------|---------)----|---------------|--------)----|-------------------- 
B|------)---14-------14)---14----)----)----14------14)---14---)---------------) 
G|14--14-------------14--------14---14-------------14-------14----14--------12- 
D|----------------------------------------------------------------------------- 
A|----------------------------------------------------------------------------- 
E|----------------------------------------------------------------------------- 
 
 
				~~~~~~~~                                        
E|---------------------------------)----)-----)\)----)------)-----)------------ 
B|---------------------------X---17---17---17------17-----17----17---17--17---- 
G|-------14---12---------12(\0)------------------------------------------------ 
D|--14------------------------------------------------------------------------- 
A|----------------------------------------------------------------------------- 
E|----------------------------------------------------------------------------- 
 
      -  -  -|                                    ~~~~~~~                                   
E|-|-\--)\--)\--)------------)--------------------------------------------- 
B|17--17--17--17--17-------15---15----------20^17----21^17---21^17----21^17 
G|------------------------------------------------19------19-------19------ 
D|------------------------------------------------------------------------- 
A|------------------------------------------------------------------------- 
E|------------------------------------------------------------------------- 
 
 
E|-----------------------0------------------------------------------------- 
B|-----21^17----21^17----21^17----21^17----21^17----21^17----21^17----21^17 
G|--19-------19-------19-------19-------19-------19-------19-------19------ 
D|------------------------------------------------------------------------- 
A|------------------------------------------------------------------------- 
E|------------------------------------------------------------------------- 
 
	
E|----------------------------------------)------------|----)------------------ 
B|-----17-21^17-----21^17------17----20-20-------20---20--20--(20)--20---17---- 
G|--19----------19--------19-------------------------------------------------19 
D|----------------------------------------------------------------------------- 
A|----------------------------------------------------------------------------- 
E|----------------------------------------------------------------------------- 
 
					  ~~~                       ~~~~ 
E|------------------------------------------------------------12------------- 
B|--20---17---------20----17---(17)-------17\-X-X--X------)------15^12------- 
G|----------19------------------------------------------14-------------14^12- 
D|--------------------------------------------------------------------------- 
A|--------------------------------------------------------------------------- 
E|--------------------------------------------------------------------------- 
                                     
 
E|---------------------------------------0----0---0--0---0------------------- 
B|---------------------------------------0----0---0--0---0---------8-------X- 
G|---------------------------12--(12)\-----------------------------7-------X- 
D|14^12------------------------------------------------------------6-------X- 
A|------14^12^10----12---------------------------------------------7-------X- 
E|---------------12----12----0----0------4----4---5--5---7-----0------------- 
                             Ba- 
 
 
E|--------------------------------------------------------------------------- 
B|8-----------------------------------------------------------------8-------- 
G|7----12----------12--12-12----------------------------------------7-------- 
D|6--------12------12--12-12----------------------------------------6-------- 
A|7------------14--12--12-12----------------------------------------7-------- 
E|--------------------------------0----0----4----4---5--5---7---7------------ 
 
		 accel.                                                       
E|-----------------------------------------------0--0---0--0---0--0---0------ 
B|--X----8----------------3----------------------0--0---0--0---0--0---0----0- 
G|--X----7--------0--2^4-----2^4^2^0----------------------------------------- 
D|--X----6----------------------------2^0^2^0-------------------------------- 
A|--X----7---------------------------------------0--0---4--4---5--5---7----0- 
E|--------------------------------------------------------------------------- 
		  -by 
 
                   _  _  _  _     ~~~~~~                                      
E|----------------|----------\------------0--0---0--0---0--0---0----0-------- 
B|----------------|-----------|-----------0--0---0--0---0--0---0----0------8- 
G|----2----X----2-|-----------|--------------------------------------------7- 
D|----2----X----2-|-----------|--------------------------------------------6- 
A|----0---------X-|-----------|--------------------------------------------7- 
E|--------------3/---------------3--------0--0---4--4---5--5---7----0-------- 
                  gimme my baby 
 
 
E|----------------------------------101210---------------------------------- 
B|-------X-------X-----8----(8)-1012------12-------------------------------- 
G|-------X-------X-----7----(7)--------------------------------------------- 
D|-------X-------X-----6----(6)------------------------------9-------------- 
A|-------X-------X-----7----(7)----------------------------9---9------------ 
E|---------------------------------------------7---------7-------7-------5-- 
                       Oh 
 
 
E|------------------------------------------------------------------)--------- 
B|----------------------------------------------------------------15---15--15- 
G|---------------------------------------------------------------------------- 
D|---------------------------------------------------------------------------- 
A|----7--5---------------7-------5-------------------------------------------- 
E|-5-----------5--5----------------------------------------------------------- 
   No      no        no     no     
 
  ~~                                                     accel.              
E|-------------------------------------------------------------------------- 
B|--15--12------12---)------------------------------------------------------ 
G|-----------14----12------------------12----------------------------------- 
D|-----------------------14---12-13-14----14-12--------------12------------- 
A|------------------------------------------------(12)----13-14-(14)-------- 
E|-------------------------------------------------------------------------- 
                                                        Take it down for me 
 
 
E|---------------------------------------------------------------------------- 
B|---------------------------------------------------------------------------- 
G|---------------------------------------------------------------------------- 
D|---------------------------------------------------------------------------- 
A|---1/2---------------------------------------------------------------------- 
E|---0(0)--------------------------------------------------------------------- 
     Be good to me baby, keep me satisfied         Try to worry me baby but I never 
 
						                       (w/ delay) 
E|------------------------------------------------------------------------------------ 
B|----------------------------------------------------------------------X\------------ 
G|----------------------------------------------------------------------X\------------ 
D|---------------------------------------X(X)\--------------------------X\------------ 
A|---------------------------------------X(X)\---------------------------------------- 
E|---------------------------------------X(X)\---------------------------------------- 
  Get to be mine so, People worry me baby, keep me satisfied       Ha, let me tell you 
 
 
E|------------------------------------------------------------------------- 
B|-----------------------------------------)------------------------------- 
G|--------------------------------/14--(14)---16--------------------------- 
D|------------------------------------------------------------------------- 
A|------------------------------------------------------------------------- 
E|------------------------------------------------------------------------- 
  Oh, you ain't nothing but a stupid no good yeah 
 
E|------------)--------------------------)------------------------------------- 
B|----------15-------------------------15------------------------)------------- 
G|------------------------------------------------------------/14-------------- 
D|----------------------------------------------------------------------------- 
A|----------------------------------------------------------------------------- 
E|----------------------------------------------------------------------------- 
  I went to sleep last night     I work as hard as I can I bring all my money, you 
  take my money give it to another man 
 
 
E|------------------------------------------------------------------------- 
B|------------------------------------------------------------------------- 
G|---16---------18----------------------------16--------------------------- 
D|------------------------------------------------------------------------- 
A|------------------------------------------------------------------------- 
E|------------------------------------------------------------------------- 
I should have quit you baby      Oh, such a long time ago 
 
                                                 trill 
E|----------------------------------------------------------------------------- 
B|----------------------------------------------------------------------------- 
G|----------------------------------------------------------------------------- 
D|-----------------------------------------------1214-------------------------- 
A|----------------------------------------------------------------------------- 
E|----------------------------------------------------------------------------- 
  I wouldn't be here will all my troubles    down on this killing floor 
 
E|------------------------------------------------------------------------- 
B|------------------------------------------------------------------------- 
G|----------7--7^9---------------------------------7^9^7^9----------------- 
D|------------------------------------------------------------------------- 
A|------------------------------------------------------------------------- 
E|------------------------------------------------------------------------- 
   Squeeze me baby til the juice runs down my leg           Oh squeeze me baby 
 
				(simil.) 
E|----------------------------------------------------------------------------- 
B|-----------------------------)-\-------------)------------------------------- 
G|---------------------------14---(14)^12--(12)-------------------------------- 
D|----------------------------------------------------------------------------- 
A|----------------------------------------------------------------------------- 
E|----------------------------------------------------------------------------- 
  til the juice runs down my legs          Oh, squeeze me baby   
 
E|------------------------------------------------------------------------- 
B|----------)-------------------------------------------------------------- 
G|--15^14^12---15^14^12--15^14^12--15^14^12--15^14^12-15^14^12-15^14^12---- 
D|----------------------------------------------------------------------14- 
A|------------------------------------------------------------------------- 
E|------------------------------------------------------------------------- 
    til the juice runs down my leg         
 
E|--------------------------------------------------------------)-------------- 
B|----------------------------------------------------12-X-15-15--------------- 
G|14----12--------------------------------------------------------------------- 
D|---14----14-12--------------------------------------------------------------- 
A|----------------14--14\------------------------------------------------------ 
E|----------------------------------------------------------------------------- 
                            The way you squeeze my lemon 
 
					  (bend string behind nut) (simil.) 
E|------------------------------------------------------------------------- 
B|----------------15^12^15^12^15^12^15^12^15^12^15^12---------------------- 
G|------------------------------------------------------------------------- 
D|------------------------------------------------------------------------- 
A|------------------------------------------------------------------------- 
E|------------------------------------------------------------------------- 
  I'm gonna fall right out of bed bed yeah 
 
E|--------------------------------------------- _  _  _  _  _  _  _  ---------- 
B|---------------9^11------9--------------)----)--------------------\---------- 
G|----(9)---11---------11------11--------9---11---11------(11)------11--------- 
D|----------------------------------------------------------------------------- 
A|----------------------------------------------------------------------------- 
E|----------------------------------------------------------------------------- 
 
				  ~~~                                       
E|--------------------------------------12--------------------------------- 
B|-------------------------------|---12----15---12---)\------------------)- 
G|--9---11-------9---(9)\-------14-----------------14-(14)^12-0-14-----12-- 
D|-----------11-----------------------------------------------0-----14----- 
A|------------------------------------------------------------------------- 
E|------------------------------------------------------------------------- 
 
 
E|----------)----|------------------------------------------------------------- 
B|------(14)----14-------|-------------------------------------------|-\------- 
G|---12--14---------14--14---(14)-----14--(14)^12----14------12--14-14---12---- 
D|14----------------------------------------------14-----14-------------------- 
A|----------------------------------------------------------------------------- 
E|----------------------------------------------------------------------------- 
 
	~~~~~~~~~                    ~~     ~~        ~~~       ~~~ 
E|------------------------------------------------------------------------- 
B|------------------------------------------------------------------------- 
G|--12--------------------------9-------9--9------9--9------9--9^11--9----- 
D|-----14-14--(14)\-------9^11-----11---------11--------11--------------11- 
A|------------------------------------------------------------------------- 
E|------------------------------------------------------------------------- 
 
 
 
E|-------|\--------------------~------)-\-------------------------------12----- 
B|-------|--(11)^9----11------9-----11---(11)^9-11------9----------)-12----15-- 
G|-9----/----------11----(11)---11------------------11-----11----14------------ 
D|----11----------------------------------------------------------------------- 
A|----------------------------------------------------------------------------- 
E|----------------------------------------------------------------------------- 
 
 
E|----------------------------------------------------------)--------------- 
B|--12---)\---)------)------------------------------------12-)-------------- 
G|-----14---12-14--12------------12-12------12-12------12-12------14-14----- 
D|--------------------14--12-14-----12(14)----(12)--14---------14--------14- 
A|-------------------------------------------------------------------------- 
E|-------------------------------------------------------------------------- 
  	Hey!               hey,   hey,        hey,            hey,            
 
E|---------------------------------------------------------------------------- 
B|-------)--------)-----)---)-----)-------------------------------------)----- 
G|--12-12-------12----12--12----12-------------------------2\11-------14-13^12 
D|----------14-----14--------14----------------------------------------------- 
A|-----------------------------------14--14\---------------------------------- 
E|---------------------------------------------------------------------------- 
             you         baby, baby, baby, baby, baby, baby, baby, baby, baby, 
 
E|---------|\-------------------------------------12-------------------------- 
B|---------|--\-------------)\-------------)--12------15----)\---------------- 
G|--------14---(14)^12----14--(14)^12----14---------------14--(14)^12-14------ 
D|------------------------------------14----------------------------------14-- 
A|---------------------------------------------------------------------------- 
E|---------------------------------------------------------------------------- 
	baby                                           hey,               hey, 
 
E|---------------------------------------------|------|------|------|------| 
B|-------------------------------------------)14---)-14---)-14---)-14---)-14 
G|-12^14-----------------------------------14----14-----14-----14-----14---- 
D|-------------------------------------------------------------------------- 
A|-------------------------------------------------------------------------- 
E|-------------------------------------------------------------------------- 
                           hey          hey                 hey             
 
E|----|-------------------------------------------------------------------- 
B|---14----14--12--15^12---)\----------------)-----------|\---------------- 
G|-----14----------------14--(14)^12----14^12-----------14-(14)^12--------- 
D|-----------------------------------14------------------------------------ 
A|------------------------------------------------------------------------- 
E|------------------------------------------------------------------------- 
  
E|----------------------------------------------------------------------------- 
B|----)-------(----------------|\---------------)-\--------------)------------- 
G|--14---------(14)^12--------14-(14)^12-----14----(14)^12-----14-------------- 
D|----------------------------------------------------------------------------- 
A|----------------------------------------------------------------------------- 
E|----------------------------------------------------------------------------- 
 
	  tremelo~~~~~~~~~~~~~~~~~~~~~~~~~~~~~                               
E|-----------------------------------------16--16\------16--16--16--14--12- 
B|-----------------------------------------15--15\------15--15--15--14--12- 
G|--9^7------------------------------------16--16\------16--16--16--14--13- 
D|------------------------------------------------------------------------- 
A|------------------------------------------------------------------------- 
E|------------------------------------------------------------------------- 
 
                                             ~~~~~~ 
E|--12\------12--12--12--14--16------16-----------16--16--16---14--12--12\----- 
B|--12\------12--12--12------15--15--15-----------15--15--15---14--12--12\----- 
G|--13\------13--13--13--14--16--16--16--(16)-----16--16--16---14--13--13\----- 
D|----------------------------------------------------------------------------- 
A|----------------------------------------------------------------------------- 
E|----------------------------------------------------------------------------- 
 
 
E|--(17)-----------------21--------------------21------21--19--17--17\------ 
B|---17--17--17------------------------------------------------------------- 
G|---18--18--18--19--21--21----------------21------21------19--18--18\--/13- 
D|-------------------------------------------------------------------------- 
A|-------------------------------------------------------------------------- 
E|-------------------------------------------------------------------------- 
 
	    w/pick & finger                                    ~~~~~~~ 
E|-12------14--16------------16--16--16---14--12---12------------------17----- 
B|------------------------------------------------------2/16-------16------16- 
G|-----13--14--16--(16)------16--16--16---14--13---13------------------------- 
D|---------------------------------------------------------------------------- 
A|---------------------------------------------------------------------------- 
E|---------------------------------------------------------------------------- 
 
  accel.  w/pick & finger 
E|--17------17------17------17------15------15------15------15------15----- 
B|------16------16------16------14------14------14------14------14--------- 
G|----------------------------------------------------------------------13- 
D|------------------------------------------------------------------------- 
A|------------------------------------------------------------------------- 
E|------------------------------------------------------------------------- 
 
                                                                   rake 
E|-----------------------------------------------------------------12^--------- 
B|----15------15------15------15------15-----------------------------12^------- 
G|--------13------13------13------13----------14------14--14--14-------12--X--X 
D|----------------------------------------13------13------13--13--------------- 
A|----------------------------------------------------------------------------- 
E|----------------------------------------------------------------------------- 
 
          ~~~~~~    rake        rake              rake               
E|------------------------------12^---------------12------------------------- 
B|---|-\---|--------12^-----------12^-------------12^-----12-----)--12------- 
G|--14----12----------12^-----------12---12^0-------12^-----14-12-----14^12-- 
D|----------------------14----------------------------14--------------------- 
A|--------------------------------------------------------------------------- 
E|--------------------------------------------------------------------------- 
  
  rake             rake           p.m.   accel. 
E|---------------------------------------15^12--15^12--15^12--15^12--15^12--- 
B|12^----------)---12^-----------(14)---------12-----12-----12-----12-----12- 
G|--12^---14-12------X^--14-12----------------------------------------------- 
D|----14--------------X------------------------------------------------------ 
A|--------------------------------------------------------------------------- 
E|--------------------------------------------------------------------------- 
 
 
e|--15^12---15-12----15-12----15-12-------12--12--------------------------- 
b|-------12-------12-------12-------12-12-12-(12)---------14^12--15^12----- 
g|-------------------------------------------------14\12---------------12-- 
d|-------------------------------------------------------------------------        
a|------------------------------------------------------------------------- 
E|-------------------------------------------------------------------------   
 
E|-----------------------------------------)----12----------------------------- 
B|----14^12-----15^12-----15^14------15--15-------15-12--|--------------------- 
G|----------12--------12--------12----------------------14--14^13-14----------- 
D|----------------------------------------------------------------------------- 
A|----------------------------------------------------------------------------- 
E|----------------------------------------------------------------------------- 
                                                           I'm gonna leave 
 
                                   w/delay 
e|---------------------------------------|        
b|---------------------------------------|  
g|---------------------------------9-----|  
d|9-----------7--------------------9-----|           
A|9-----------7--------------------7-----| 
E|7-----------5--------------------------| 
  right here  down on this killing floor 
	  

there isn't a video lesson for this song

request
Search
auto scroll beats size up size down change color hide chords drawings
tab show chords e-chords YouTube Clip e-chords hide all tabs e-chords go to top tab