Led Zeppelin

home > Led Zeppelin

South Bound Saurez Tab

Led Zeppelin

Difficulty: nolevelnolevel

tuner correct add songbook print version text version save to e-mail
chordsukulelecavacokeyboardtabbassdrumsharmonicsflute Guitar Pro
chords

South Bound Saurez

Year: 1979 - Album: Complete Studio Recordings

	  6 5 4 3 2 1 
E A D G B E 
 
 
E|----------------|----------------|-----5-----5-89-|-----5-----5-89-| 
B|----------------|----------------|-----5-----5----|-----5-----5----| 
G|----------------|----------------|--56-6--56-6-89-|--56-6--56-6-89-| 
D|----------------|----------------|--67----67------|--67----67------| 
A|----------------|----------------|--67----67------|--67----67------| 
E|----------------|----------------|--45----45------|--45----45------| 
 
E|-----8-----81112|-----8-----81112|-----5-----5-89-|-----5-----5-89-| 
B|-----8-----8----|-----8-----8----|-----5-----5----|-----5-----5----| 
G|--89-9--89-91112|--89-9--89-91112|--56-6--56-6-89-|--56-6--56-6-89-| 
D|--910---910-----|--910---910-----|--67----67------|--67----67------| 
A|--910---910-----|--910---910-----|--67----67------|--67----67------| 
E|--78----78------|--78----78------|--45----45------|--45----45------| 
 
E|-----8-----81112|-----8-----81112|-----5-----5-89-|-----5-----5-89-| 
B|-----8-----8----|-----8-----8----|-----5-----5----|-----5-----5----| 
G|--89-9--89-91112|--89-9--89-91112|--56-6--56-6-89-|--56-6--56-6-89-| 
D|--910---910-----|--910---910-----|--67----67------|--67----67------| 
A|--910---910-----|--910---910-----|--67----67------|--67----67------| 
E|--78----78------|--78----78------|--45----45------|--45----45------| 
 
E|----------------|------8-----8-12| 
B|----------------|-----88-----8---| 
G|------10-141210-|--89-9-9-8999-12| Repeat 2X 
D|--10--1012------|--910----910----| 
A|--1012----------|----------------| 
E|----------------|----------------| 
 
E|----------------|----------------| 
B|6---------------|-1--------------| 
G|7---------------|-200------------| 
D|8---------------|---3--(3)-------| 
A|8---------------|----------------| 
E|6---------------|----------101-5-| 
 
Repeat that 3 times 
 
 
  Outro 
E|----------------|----------------|------------6---|----------------| 
B|----------------|----------------|--------68---86-|----------------| 
G|---------5--3---|---------------5|5---------------|----------------| 
D|3---------------|---13-----------|----------------|----------------| 
A|----------------|----------------|----------------|----------------| 
E|----------------|------------01--|----------------|----------------| 
 |                                                                   | 
E|----------------|----------------|-----8-----81112|-----8-----81112| 
B|----------------|----------------|-----8-----8----|-----8-----8----| 
G|7---------------|--20------------|--89-9--89-91112|--89-9--89-91112| 
D|8---------------|----3-----------|--910---910-----|--910---910-----| 
A|8---------------|----------------|--910---910-----|--910---910-----| 
E|6---------------|----------101---|--78----78------|--78----78------| 
 
E|----6-----------|----6-----------|---6------------|---6------------| 
B|-86----86-64----|--68---86-6-----|--8----864------|--8----864------| 
G|------------5-55|------------5555|----------5-55--|----------5-55--| 
D|----------------|----------------|----------------|----------------| 
A|----------------|----------------|----------------|----------------| 
E|----------------|----------------|----------------|----------------| 
 |          \3/                                                      | 
E|----------------|----------------|----------------|----------------| 
B|----------------|----------------|----------------|----------------| 
G|----------------|----------------|----------------|----------------| 
D|----------------|----------------|----------------|----------------| 
A|8-10121010101210|--10121010101210|1010121010101210|1010121010101210| 
E|6-8-8-8-8-8-8-8-|--8-8-8-8-8-8-8-|8-8-8-8-8-8-8-8-|8-8-8-8-8-8-8-8-| 
 
E|----8-----------|---6------------|----8-----------|----8-----------| 
B|-68----864------|-68----864------|-68----864------|-68----86-------| 
G|----------5-55--|----------5555--|----------5-55--|----------5-5555| 
D|----------------|----------------|----------------|----------------| 
A|----------------|----------------|----------------|----------------| 
E|----------------|----------------|----------------|----------------| 
 |                                                                   | 
E|----------------|----------------|----------------|----------------| 
B|----------------|----------------|----------------|----------------| 
G|----------------|----------------|----------------|----------------| 
D|----------------|----------------|----------------|----------------| 
A|1010121010101210|1010121010101210|1010121010101210|1010121010101210| 
E|8-8-8-8-8-8-8-8-|8-8-8-8-8-8-8-8-|8-8-8-8-8-8-8-8-|8-8-8-8-8-8-8-8-| 
 
E|----6-----------|---6------------|----8-----------|----8-----------| 
B|-68----86-------|-68----864------|-68----864------|-68----86-------| 
G|---------55-55--|----------5555--|----------5-55--|----------5-5555| 
D|----------------|----------------|----------------|----------------| 
A|----------------|----------------|----------------|----------------| 
E|----------------|----------------|----------------|----------------| 
 |                                                                   | 
E|----------------|----------------|----------------|----------------| 
B|----------------|----------------|----------------|----------------| 
G|----------------|----------------|----------------|----------------| 
D|----------------|----------------|----------------|----------------| 
A|1010121010101210|1010121010101210|1010121010101210|1010121010101210| 
E|8-8-8-8-8-8-8-8-|8-8-8-8-8-8-8-8-|8-8-8-8-8-8-8-8-|8-8-8-8-8-8-8-8-| 
 
E|-6-8-86---------| 
B|-------8666-----| 
G|-----------6-5-5| 
D|----------------| 
A|--------------7-| 
E|----------------| 
 |                | 
E|----------------| 
B|----------------| 
G|----------------| 
D|----------------| 
A|1010121010101210| 
E|8-8-8-8-8-8-8-8-| 
 
  Solo 
E|1515151515151515151515--15151515|151515151515151515151515--151515| 
B|171717171717171717171715--131513|17171717171717171717171715131513| 
G|--------------------------------|--------------------------------| 
D|--------------------------------|--------------------------------| 
A|--------------------------------|--------------------------------| 
E|--------------------------------|--------------------------------| 
 
E|151515151515151515151515--151515|151515151515151515151515--1515--| 
B|17171717171717171717171515131513|171717171717171717171715151315--| 
G|--------------------------------|--------------------------------| 
D|--------------------------------|--------------------------------| 
A|--------------------------------|--------------------------------| 
E|--------------------------------|--------------------------------| 
 
E|--------5-8-5-10------14------14|14-13-12--------------------------| 
B|------5---8-5-----5-------------|--------141312------------131513--| 
G|----6---------------------12----|--------------141312--1214--------| 
D|--------------------------------|----------------------------------| 
A|--------------------------------|----------------------------------| 
E|--------------------------------|----------------------------------| 
                                   \---3--/          \--3------------| 
 
E|------------------------15------|--------------------------------| 
B|13--------------------------13--|--131513--13--1317--1513----13--| 
G|--------------------------------|14----------14------------------| 
D|--------------------------------|--------------------------------| 
A|--------------------------------|--------------------------------| 
E|--------------------------------|--------------------------------| 
 
E|---------------------131415-----|----------------------15--------| 
B|-----------------1517---------15|171513--15----15131517--13--13--| 
G|--------------------------------|--------------------------------| 
D|--------------------------------|--------------------------------| 
A|--------------------------------|--------------------------------| 
E|--------------------------------|--------------------------------| 
 
E|---------------18--15---1514--13|--131415------------------------| 
B|--------------------------------|17------1715--13----15--13------| 
G|--------------------------------|------------------14--14--------| 
D|--------------------------------|--------------------------------| 
A|--------------------------------|--------------------------------| 
E|--------------------------------|--------------------------------| 
 
E|----18------15--1413--131415----|--------------------------------| 
B|--------------------17--------15|17----151713--------------------| 
G|--------------------------------|--------------------------------| 
D|--------------------------------|--------------------------------| 
A|--------------------------------|--------------------------------| 
E|--------------------------------|--------------------------------|
	  

there isn't a video lesson for this song

request
Full key step upFull key step up
Half key step upHalf key step up
Half key step downHalf key step down
Full key step downFull key step down
Search
auto scroll beats size up size down change color hide chords drawings
tab show chords e-chords YouTube Clip e-chords hide all tabs e-chords go to top tab