Led Zeppelin

home > Led Zeppelin

Dyer Maker (ver. 3) Tab

Led Zeppelin

Difficulty: BeginnerBeginner

tuner correct add songbook print version text version save to e-mail
chordsukulelecavacokeyboardtabbassdrumsharmonicsflute Guitar Pro
chords

Dyer Maker (ver. 3)

  		Transcribed by Victor Ochoa 
 
 Words and Music by John Bonham, John Paul Jones and Robert Plant  
 
 
 Intro 
  Reggae/Rock Q=80 
 4/4 
  Gtr I 
|------------|-----------------------------|| 
|------------|-----------------------------|| 
|------------|-----------------------------|| 
|--------x-x-|-x-x---x--x-x-x-x--x-x-x-x-x-|| 
|------------|-----------------------------|| 
|------------|-----------------------------|| 
 
 
  C                Am 
  Gtr I 
    |          |       |       | 
    /          /       /       / 
 
  Gtr II 
    PM|              PM--| 
|-------10/-12-------------7-8-x----| 
|---8-8--------0-0-----5---------0--| 
|---9-9-10/-12-0-0---5-5-5----------| 
|------------------7----------------| 
|-----------------------------------| 
|-8---------------------------------| 
 
 
  F               G 
      |        |        |        | 
      /        /        /        / 
 
                     PM---| 
|---------3/-5--------------5/-7---0-| 
|-----1---------0---(3)-3-3----------| 
|---2---2-3/-5--0----4--4-4-5/-7-7---| 
|-3----------------------------------| 
|------------------------------------| 
|-----------------3------------------| 
 
 
  C                       Am                      F              G 
         |           |          |        |           |       |       |       | 
         /           /          /        /           /       /       /       / 
 
      PM---| 
|-------------10/-12----------------7S8-(0)-----|--------3S5-------------5S7-x-0-|| 
|--------8--8-------------------5-----------(0)-|----1---------------3-------x-0-|| 
|-----9--9--9-10/-12--<7>---------5-------------|--2---2-3S5-0-0---4---4-5S7-----|| 
|----10-10-10-----------------7-----------------|----------------5---------------|| 
|-10----------------------(0)-------------------|--------------------------------|| 
|--8--------------------------------------------|--------------------------------|| 
 
 
 Verse 1 
  C                  Am 
       |         |       |       | 
       /         /       /       / 
 
|----------10S12-------------7S8-----| 
|------8-----------------5-----------| 
|----9---9-------x-x-x-5---5-----x-x-| 
|-10---------------------------------| 
|------------------------------------| 
|------------------------------------| 
 
 
  F                G                 C                  Am 
      |        |       |       |          |         |       |       | 
      /        /       /       /          /         /       /       / 
 
|---------3S=5-------------5S7-----|----------10S12-------------7S8-----| 
|-----1--------0-------3---------0-|------8-----------------5-----------| 
|---2---2---/5-0-0---4---4-5S7-7---|----9---9-------x-x-x-5---5-----x-x-| 
|-3----------------5---------------|-10---------------------------------| 
|----------------------------------|------------------------------------| 
|----------------------------------|------------------------------------| 
 
 
  F                G                 C                Am 
      |        |       |       |          |         |     |     | 
      /        /       /       /          /         /     /     / 
 
|---------3S=5-------------5S7-----|----------10S12---------7S8------| 
|-----1--------0-------3---------0-|------8---------0-----5-----x-x--| 
|---2---2---/5-0-0---4---4-5S7-7---|----9---9-------------5----------| 
|-3----------------5---------------|-10---------------x-7------------| 
|----------------------------------|---------------------------------| 
|----------------------------------|---------------------------------| 
 
 
  F                G                 Am7 
      |        |       |       | 
      /        /       /       / 
 
|---------3S=5-------------5S7-----|-5--------| 
|-----1--------0-------3---------0-|-5--------| 
|---2---2---/5-0-0---4---4-5S7-7---|-5--------| 
|-3----------------5---------------|-5--------| 
|----------------------------------|-7--------| 
|----------------------------------|-5--------| 
 
 
|-------------------------------------|| 
|-------5-(5)---------5---------------|| 
|-------5-(5)-5-----5---5-------------|| 
|-----5---------5h7-------5-5h7-5-----|| 
|-5h7-----------------------------7---|| 
|-------------------------------------|| 
 
 
 Verse 2 
  C                  Am                F              G 
       |         |       |       |        |       |       |       | 
       /         /       /       /        /       /       /       / 
 
                 PM--------|            PM--|     PM| 
|----------10S12-------------7S8-----|--------3S5-------------5S7-x-0-| 
|------8-----------------5-----------|----1---------------3-------x-0-| 
|----9---9-------x-x-x-5---5-----x-x-|--2---2-3S5-0-0---4---4-5S7-----| 
|-10---------------------------------|----------------5---------------| 
|------------------------------------|--------------------------------| 
|------------------------------------|--------------------------------| 
 
 
  C                  Am 
       |         |       |       | 
       /         /       /       / 
 
                 PM| 
|----------10S12-------------7S8-----| 
|------8---------0-0-----5-------x-0-| 
|----9---9-------------5---5---------| 
|-10-----------------7---------------| 
|------------------------------------| 
|------------------------------------| 
 
 
  F                G                 C                  Am 
      |        |       |       |          |         |       |       | 
      /        /       /       /          /         /       /       / 
 
               PM|                                  PM| 
|---------3S=5-------------5S7-----|----------10S12-------------7S8-----| 
|-----1--------0-------3---------0-|------8---------0-0-----5-------x-0-| 
|---2---2---/5-0-0---4---4-5S7-7---|----9---9-------------5---5---------| 
|-3----------------5---------------|-10-----------------7---------------| 
|----------------------------------|------------------------------------| 
|----------------------------------|------------------------------------| 
 
 
  F                G                 Am7 
      |        |       |       | 
      /        /       /       / 
 
               PM| 
|---------3S=5-------------5S7-----|-5--------|-----|| 
|-----1--------0-------3---------0-|-5--------|-----|| 
|---2---2---/5-0-0---4---4-5S7-7---|-5--------|-----|| 
|-3----------------5---------------|-5--------|-----|| 
|----------------------------------|-7--------|-----|| 
|----------------------------------|-5--------|-----|| 
 
 
 Chorus 1 
  A5  Am                          G 
      |      |       |      |           |    |    |        | 
      /      /       /      /           /    /    /        / 
 
|-------------------------------|-------------------------------| 
|-------------------------------|-------------------------------| 
|--------(5)--------------------|---(4)----4----4--4------------| 
|-7-7--7--7------7-7--7-7-7-5-7-|----5---5-5----5--5----5--5-5S=| 
|-7-7--7--7--7-7-7-7--7-7-7-5-7-|-5--5---5-5--5-5----5--5-------| 
|-5-5--5--5--5-5-5-5--5-5-------|-3-----------3------3-(3)------| 
 
 
  A5  Am 
      |    |     |      | 
      /    /     /      / 
 
|---------------------------| 
|---------------------------| 
|---2--2-2-x-0-2--0-2-2-0-2-| 
|-2-2--2-2-x-0-2--0-2-2-0-2-| 
|---0--0-0-x-0------0-------| 
|---------------------------| 
 
 
  G                              A5  Am 
        |    |    |        |         |    |     |      | 
        /    /    /        /         /    /     /      / 
 
|------------------------------|---------------------------| 
|------------------------------|---------------------------| 
|---(4)----4----4--4-----------|---2--2-2-x-0-2--0-2-2-0-2-| 
|----5---5-5----5--5----5--5-5S|=2-2--2-2-x-0-2--0-2-2-0-2-| 
|-5--5---5-5--5-5----5--5------|---0--0-0-x-0------0-------| 
|-3-----------3------3-(3)-----|---------------------------| 
 
 
  G                              F 
        |    |       |      |    | 
        /    /       /      /    / 
 
|------------------------------|---------------------------------| 
|------------------------------|---1-----1-----1-----1-----1-1---| 
|---(4)----4-x-x---4--2S4-4----|-----2-----2-----2-----2-----2---| 
|----5---5-5-x-x---5----5-5-5\-|-3-----3-----3-----3-----3-----3S| 
|-5--5---5-5-----5-5----5------|---------------------------------| 
|-3--------------3------3------|---------------------------------| 
 
 
  G                 G/F   G/E   G/D 
  | 
  / 
 
|-------------------------------------|| 
|---3-----3-(3)---3-----3---3-3---3---|| 
|-----4------4----4---0-----0-0---0---|| 
|-5-----5-------5---3-----2-----0-----|| 
|-------------------------------------|| 
|-------------------------------------|| 
 
 
 Verse 3 
  C                       Am 
  Gtr I 
         |           |          |        | 
         /           /          /        / 
 
  Gtr II 
      PM---| 
|-------------10/-12----------------7S8-(0)-----| 
|--------8--8-------------------5-----------(0)-| 
|-----9--9--9-10/-12--<7>---------5-------------| 
|----10-10-10-----------------7-----------------| 
|-10----------------------(0)-------------------| 
|--8--------------------------------------------| 
 
 
  F               G 
      |       |       |       | 
      /       /       /       / 
 
    PM--|         PM----| 
|---------3-5---0---------5-7---0-| 
|---1---------0-----3---------0---| 
|-----2---------------4-----------| 
|-x-----3---------5-----5---------| 
|---------------------------------| 
|---------------------------------| 
 
 
  C                   Am                F               G 
       |          |       |       |         |       |       |       | 
       /          /       /       /         /       /       /       / 
 
     PM--|              PM--|             PM--|         PM----| 
|-----------10-12-x-x---------7-8-----|---------3-5---0---------5-7---0-| 
|----8------------------5---------0-0-|---1---------0-----3---------0---| 
|------9------------------5-----------|-----2---------------4-----------| 
|-10-----10-----------x-----7---------|-x-----3---------5-----5---------| 
|-------------------------------------|---------------------------------| 
|-------------------------------------|---------------------------------| 
 
 
  C                   Am                F                G 
       |          |       |       |         |        |       |       | 
       /          /       /       /         /        /       /       / 
 
     PM--|              PM--| 
|-----------10-12-x-x---------7-8-----|---------3S=5-------------5S7-----| 
|----8------------------5---------0-0-|-----1--------0-------3---------0-| 
|------9------------------5-----------|---2---2---/5-0-0---4---4-5S7-7---| 
|-10-----10-----------x-----7---------|-3----------------5---------------| 
|-------------------------------------|----------------------------------| 
|-------------------------------------|----------------------------------| 
 
 
  Am7 
|-5--------|------------------------------|| 
|-5--------|------------------------------|| 
|-5--------|--------5--(5)--(5)-----5-----|| 
|-5--------|-----5-(5)-(5)--(5)-----5-7-5-|| 
|-7--------|-5-7----------------5-7-------|| 
|-5--------|------------------------------|| 
 
 
 Verse 4 
  C                  Am                F                G 
  Gtr I 
       |         |       |       |         |        |       |        | 
       /         /       /       /         /        /       /        / 
 
  Gtr II 
   PM----|           PM----|             PM--|            PM--| 
|----------10S12-------------7S8-----|---1-----3S=5-------3-----5S7---------| 
|------8---------0-0-----5-------x-0-|-----1----------x-----3---------------| 
|----9---9-------------5---5---------|-------2---/5-5---------4-----<5>-<7>-| 
|-10-----------------7---------------|-3----------------5-------------------| 
|------------------------------------|--------------------------------------| 
|------------------------------------|--------------------------------------| 
 
 
  C                  Am                F                G 
       |         |       |       |         |        |       |       | 
       /         /       /       /         /        /       /       / 
 
|----8-----10S12-------5-----7S8-----|---------3S=5-------------5S7-----| 
|------8---------x-0-----5---------0-|---1------------0---3---------8---| 
|--------9-----------------5-----x---|-----2-----/5-5-------4---5S7---7-| 
|-10-----------------7---------------|-3-----3----------5-----5---------| 
|------------------------------------|-3----------------5---------------| 
|------------------------------------|-1----------------3---------------| 
 
 
  C                  Am                F                G 
       |         |       |       |         |        |       |       | 
       /         /       /       /         /        /       /       / 
 
|----8-----10S12-------5-----7S8-----|---------3S=5-------------5S7-----| 
|------8---------x-0-----5---------0-|---1------------0---3---------8---| 
|--------9-----------------5-----x---|-----2-----/5-5-------4---5S7---7-| 
|-10-----------------7---------------|-3-----3----------5-----5---------| 
|------------------------------------|-3----------------5---------------| 
|------------------------------------|-1----------------3---------------| 
 
 
  Am7 
|-5--------|-----|| 
|-5--------|-----|| 
|-5--------|-----|| 
|-5--------|-----|| 
|-7--------|-----|| 
|-5--------|-----|| 
 
 
 Chorus 2 
  A5  Am                          G 
  Gtr I 
      |      |       |      |           |    |    |        | 
      /      /       /      /           /    /    /        / 
 
  Gtr II 
|-------------------------------|-------------------------------| 
|-------------------------------|-------------------------------| 
|--------(5)--------------------|---(4)----4----4--4------------| 
|-7-7--7--7------7-7--7-7-7-5-7-|----5---5-5----5--5----5--5-5S=| 
|-7-7--7--7--7-7-7-7--7-7-7-5-7-|-5--5---5-5--5-5----5--5-------| 
|-5-5--5--5--5-5-5-5--5-5-------|-3-----------3------3-(3)------| 
 
 
  A5  Am                      G 
      |    |     |      |           |    |    |        | 
      /    /     /      /           /    /    /        / 
 
|---------------------------|-------------------------------| 
|---------------------------|-------------------------------| 
|---2--2-2-x-0-2--0-2-2-0-2-|---(4)----4----4--4------------| 
|-2-2--2-2-x-0-2--0-2-2-0-2-|----5---5-5----5--5----5--5-5S=| 
|---0--0-0-x-0------0-------|-5--5---5-5--5-5----5--5-------| 
|---------------------------|-3-----------3------3-(3)------| 
 
 
  A5  Am                      G 
      |    |     |      |           |    |       |      | 
      /    /     /      /           /    /       /      / 
 
|---------------------------|------------------------------| 
|---------------------------|------------------------------| 
|---2--2-2-x-0-2--0-2-2-0-2-|---(4)----4-x-x---4--2S4-4----| 
|-2-2--2-2-x-0-2--0-2-2-0-2-|----5---5-5-x-x---5----5-5-5\-| 
|---0--0-0-x-0------0-------|-5--5---5-5-----5-5----5------| 
|---------------------------|-3--------------3------3------| 
 
 
  F                                 G                 G/F   G/E   G/D 
  |                                 | 
  /                                 / 
 
|---------------------------------|-----------------------------------|| 
|---1-----1-----1-----1-----1-1---|---3-----3-(3)---3-----3---3-3---3-|| 
|-----2-----2-----2-----2-----2---|-----4------4----4---0-----0-0---0-|| 
|-3-----3-----3-----3-----3-----3S|=5-----5-------5---3-----2-----0---|| 
|---------------------------------|-----------------------------------|| 
|---------------------------------|-----------------------------------|| 
 
 
 Guitar Solo 
  C                      Am                    F                   G 
  Gtr I 
        |            |         |         |           |         |             |        | 
        /            /         /         /           /         /             /        / 
 
  Gtr III 
                                         ~~~~~~~~~~ 
|--------------------------------------------|-------------------------------7----------10b12-| 
|------------------------6b8-----6---5-------|---------------------10b12---------10-8---------| 
|-----x-7pb9r==(7)---5-----------------7-----|---------------7s9------------------------------| 
|----------------------------------------7---|-(7)--------------------------------------------| 
|-(3)----------------------------------------|------------------------------------------------| 
|--------------------------------------------|------------------------------------------------| 
| 
| Gtr II 
|       PM---|           PM--------|                                      PM---| 
|--------------10S12-----------------7-8-----|-----------3S5----------------------5S7----0----| 
|-------8----8-------0-0-------5---------x-0-|-------1-----------0-------(3)-3-3--------------| 
|-------9----9-10S12-0-0-----5-5---5---------|-----2---2-3S5-----0--------4--4-4--5S7-7-------| 
|------------------------7-------------------|--3---------------------------------------------| 
|--------------------------------------------|------------------------------------------------| 
|--8-----------------------------------------|----------------------3-------------------------| 
 
 
  C                    Am 
         |         |            |             | 
         /         /            /             / 
 
|-(10)-------10----8---10b11---10---8---------------| 
|---------------------------------------8b10-(8)----| 
|---------------------------------------------------| 
|---------------------------------------------------| 
|---------------------------------------------------| 
|---------------------------------------------------| 
| 
|                    PM-----------| 
|------8-----10S12-----------5------7S8-------------| 
|--------8---------x-0----------5----------------0--| 
|----------9----------------------5-----------x-----| 
|--10-------------------7---------------------------| 
|---------------------------------------------------| 
|---------------------------------------------------| 
 
 
  F                          G 
        |         |                  |          | 
        /         /                  /          / 
 
|------------------------------------------------------| 
|-(8)-------(8)-----(8)pb10==(8)r(8)-5-----------------| 
|----------------------------------------7b9-7--5------| 
|---------------------------------------------------7--| 
|------------------------------------------------------| 
|------------------------------------------------------| 
| 
|     PM--|                       PM---| 
|-----1------3S=5-----------------3------5S==7---------| 
|-------1------------x---------------3-----------------| 
|---------2----/5-5--------------------4-------<5>-<7>-| 
|--3--------------------------5------------------------| 
|------------------------------------------------------| 
|------------------------------------------------------| 
 
 
  C                     Am 
       |         |             |        | 
       /         /             /        / 
 
   ~~                                   ~ 
|-------------------------------------------| 
|-------------------------------------------| 
|--5-------------7b9====(7)r==(7)---5---5---| 
|-------------------------------------7-----| 
|-------------------------------------------| 
|-------------------------------------------| 
| 
|    PM--|            PM----------| 
|----8-----10S12------------5-------7S8-----| 
|------8---------x----0--------5----------0-| 
|--------9------------------------5-----x---| 
|-10---------------------7------------------| 
|-------------------------------------------| 
|-------------------------------------------| 
 
 
  F                      G                          Am7 
         |          |            |        | 
         /          /            /        / 
 
   ~~~                                                ~~~~ 
|--------------------------------7----------10b12-|-(10)--------|--------|| 
|------------------(5)---10b12-------10-8---------|-------------|--------|| 
|-(5)---------------------------------------------|-------------|--------|| 
|-------(7)---------------------------------------|-------------|--------|| 
|-------------------------------------------------|-------------|--------|| 
|-------------------------------------------------|-------------|--------|| 
| 
|                                                                  > 
|     PM----|                  PM--| 
|-------------3S=5--------------------5S7---------|---5---------|-(5)----|| 
|-----1----------------0-------3----------8-------|---5---------|-(5)----|| 
|--------2------/5--5------------4----5S7----7----|---5---------|-(5)----|| 
|--3--------3-------------5--------5--------------|---5---------|-(5)----|| 
|--3----------------------5-----------------------|---7---------|-(7)----|| 
|--1----------------------3-----------------------|---5---------|-(5)----|| 
 
 
 Verse 5 
  C                  Am                F               G 
  Gtr I 
       |         |       |       |         |       |       |       | 
       /         /       /       /         /       /       /       / 
 
  Gtr II 
   PM----|                             PM----|         PM----| 
|----------10S12-------5-----7S8-----|---1-----3S5-------3-----5S7-----| 
|----8-------------0-------------0-0-|---------------0-----3---------0-| 
|------9-9-10S12-x-------5-------0---|-----2---3S5-5---------4-5S7-7---| 
|-10-----------------7-----7---------|-3-----3---------------5---------| 
|------------------------------------|-----------------5---------------| 
|------------------------------------|-----------------3---------------| 
 
 
  C                  Am                F               G 
       |         |       |       |         |       |       |       | 
       /         /       /       /         /       /       /       / 
 
   PM----|                             PM----|         PM----| 
|----------10S12-------5-----7S8-----|---1-----3S5-------3-----5S7-----| 
|----8-------------0-------------0-0-|---------------0-----3---------0-| 
|------9-9-10S12-x-------5-------0---|-----2---3S5-5---------4-5S7-7---| 
|-10-----------------7-----7---------|-3-----3---------------5---------| 
|------------------------------------|-----------------5---------------| 
|------------------------------------|-----------------3---------------| 
 
 
  C                  Am                F               G 
       |         |       |       |         |       |       |       | 
       /         /       /       /         /       /       /       / 
 
   PM----|                             PM----|         PM----| 
|----------10S12-------5-----7S8-----|---1-----3S5-------3-----5S7-----| 
|----8-------------0-------------0-0-|---------------0-----3---------0-| 
|------9-9-10S12-x-------5-------0---|-----2---3S5-5---------4-5S7-7---| 
|-10-----------------7-----7---------|-3-----3---------------5---------| 
|------------------------------------|-----------------5---------------| 
|------------------------------------|-----------------3---------------| 
 
 
|-5--------|-----------------------------------|| 
|-5--------|-------5-(5)-----------------------|| 
|-5--------|-------5-(5)-5-------5-----5-7-----|| 
|-5--------|-----5-------------5---5-7-5---5-7-|| 
|-7--------|-5-7-----------5-7-----------------|| 
|-5--------|-----------------------------------|| 
 
 
 Outro Verse 
  C                  Am                F                G 
  Gtr I 
       |         |       |       |         |        |       |       | 
       /         /       /       /         /        /       /       / 
 
  Gtr II 
|----8-----10S12-------5-----7S8-----|---------3S=5-------------5S7-----| 
|------8---------x-0-----5---------0-|---1------------0---3---------8---| 
|--------9-----------------5-----x---|-----2-----/5-5-------4---5S7---7-| 
|-10-----------------7---------------|-3-----3----------5-----5---------| 
|------------------------------------|-3----------------5---------------| 
|------------------------------------|-1----------------3---------------| 
 
 
  C                  Am 
       |         |       |       | 
       /         /       /       / 
 
|----8-----10S12-------5-----7S8-----| 
|------8---------x-0-----5---------0-| 
|--------9-----------------5-----x---| 
|-10-----------------7---------------| 
|------------------------------------| 
|------------------------------------| 
 
 
  F                G                 C                  Am 
      |        |       |       |          |         |       |       | 
      /        /       /       /          /         /       /       / 
 
|---------3S=5-------------5S7-----|----------10S12-------5-----7S8-----| 
|-----1--------0-------3---------0-|------8-----------0-----5-------0-x-| 
|---2---2---/5-0-0---4---4-5S7-7---|----9-9-9-10S12-5---------5---------| 
|-3----------------5---------------|-10-----------------7---------------| 
|----------------------------------|------------------------------------| 
|----------------------------------|------------------------------------| 
 
 
  F                G                 C                  Am 
      |        |       |       |          |         |       |       | 
      /        /       /       /          /         /       /       / 
 
    PM--|            PM 
|---1-----3S=5-------3-----5S7-----|----8-----8-10S12-----5-----5-7-8-7\-| 
|-----1--------0-----------------0-|------8-----------0-----5------------| 
|-------2---/5---5-----4-------0---|--------9-----------------5----------| 
|-3----------------5-----5---------|-10-----------------7----------------| 
|----------------------------------|-------------------------------------| 
|----------------------------------|-------------------------------------| 
 
 
  F                     G 
      |          |          |          | 
      /          /          /          / 
 
    PM--|                 PM 
|---1-----1--3S==5--(3)---3-----3--5S==7------| 
|-----1---------------------3-----------------| 
|-------2---(3)S(5)-----------4---(5)S(7)-(7)-| 
|-3---------------------5---------------------| 
|---------------------------------------------| 
|---------------------------------------------| 
 
 
  C                  Am                 F                     G 
       |         |       |       |          |          |          |          | 
       /         /       /       /          /          /          /          / 
 
                                          PM--|                 PM 
|----8-----8-10S12-----5-----5-7S8-7\-|---1-----1--3S==5--(3)---3-----3--5S==7------| 
|------8-----------0-----5------------|-----1---------------------3-----------------| 
|--------9-----------------5----------|-------2---(3)S(5)-----------4---(5)S(7)-(7)-| 
|-10-----------------7----------------|-3---------------------5---------------------| 
|-------------------------------------|---------------------------------------------| 
|-------------------------------------|---------------------------------------------| 
 
 
  C                  Am 
       |         |       |       | 
       /         /       /       / 
 
|----8-----8-10S12-----5-----5-7S8-7\-| 
|------8-----------0-----5------------| 
|--------9-----------------5----------| 
|-10-----------------7----------------| 
|-------------------------------------| 
|-------------------------------------| 
 
 
  F                     G                       C                  Am 
      |          |          |          |             |         |       |       | 
      /          /          /          /             /         /       /       / 
 
    PM--|                 PM 
|---1-----1--3S==5--(3)---3-----3--5S==7------|----8-----8-10S12-----5-----5-7S8-7\-| 
|-----1---------------------3-----------------|------8-----------0-----5------------| 
|-------2---(3)S(5)-----------4---(5)S(7)-(7)-|--------9-----------------5----------| 
|-3---------------------5---------------------|-10-----------------7----------------| 
|---------------------------------------------|-------------------------------------| 
|---------------------------------------------|-------------------------------------| 
 
 
  F                     G                       C                  Am 
  Gtr I 
      |          |          |          |             |         |       |       | 
      /          /          /          /             /         /       /       / 
 
  Gtr II 
    PM--|                 PM 
|---1-----1--3S==5--(3)---3-----3--5S==7------|----8-----8-10S12-----5-----5-7S8-7\-| 
|-----1---------------------3-----------------|------8-----------0-----5------------| 
|-------2---(3)S(5)-----------4---(5)S(7)-(7)-|--------9-----------------5----------| 
|-3---------------------5---------------------|-10-----------------7----------------| 
|---------------------------------------------|-------------------------------------| 
|---------------------------------------------|-------------------------------------| 
| 
|---------------------------------------------|-------------------------------------| 
|---------------------------------------------|-------------------------------------| 
|---------------------------------------------|-------------------------------------| 
|---------------------------------------------|-------------------------------------| 
|---------------------------------------------|-------------------------------------| 
|---------------------------------------------|-------------------------------------| 
 
 
  F                     G 
      |          |              |             | 
      /          /              /             / 
 
    PM--|                   PM 
|---1-----1--3S==5--(3)-----3----------3--5S==7------|| 
|-----1-------------------------3--------------------|| 
|-------2---(3)S(5)-----------------4----(5)S(7)-(7)-|| 
|-3----------------------5---------------------------|| 
|----------------------------------------------------|| 
|----------------------------------------------------|| 
| 
| Gtr IV 
|-----------------------12-12-(12)-12-10--8---7--(5)-|| 
|----------------------------------------------------|| 
|-----------------------12-12-(12)-12-10--9---7--(5)-|| 
|-----------------------14-14-(14)-14-12-10---9--(7)-|| 
|----------------------------------------------------|| 
|----------------------------------------------------|| 
 
 
  C                  Am 
       |         |       |       | 
       /         /       /       / 
 
|----8-----8-10S12-----5-----5-7S8-7\-| 
|------8-----------0-----5------------| 
|--------9-----------------5----------| 
|-10-----------------7----------------| 
|-------------------------------------| 
|-------------------------------------| 
 
 
  F                     G                       C                  Am 
      |          |          |          |             |         |       |       | 
      /          /          /          /             /         /       /       / 
 
    PM--|                 PM 
|---1-----1--3S==5--(3)---3-----3--5S==7------|----8-----8-10S12-----5-----5-7S8-7\-| 
|-----1---------------------3-----------------|------8-----------0-----5------------| 
|-------2---(3)S(5)-----------4---(5)S(7)-(7)-|--------9-----------------5----------| 
|-3---------------------5---------------------|-10-----------------7----------------| 
|---------------------------------------------|-------------------------------------| 
|---------------------------------------------|-------------------------------------| 
 
 
  F                     G 
      |          |          |          | 
      /          /          /          / 
 
    PM--|                 PM 
|---1-----1--3S==5--(3)---3-----3--5S==7------| 
|-----1---------------------3-----------------| 
|-------2---(3)S(5)-----------4---(5)S(7)-(7)-| 
|-3---------------------5---------------------| 
|---------------------------------------------| 
|---------------------------------------------| 
 
 
  C                  Am 
       |         |       |       | 
       /         /       /       / 
 
|----8-----8-10S12-----5-----5-7S8-7\-*| 
|------8-----------0-----5------------*| 
|--------9-----------------5----------*| 
|-10-----------------7----------------*| 
|-------------------------------------*| 
|-------------------------------------*| 

	  

Full key step upFull key step up
Half key step upHalf key step up
Half key step downHalf key step down
Full key step downFull key step down
Search Paypal
auto scroll beats size up size down change color hide chords drawings
tab show chords e-chords YouTube Clip e-chords hide all tabs e-chords go to top tab