Led Zeppelin

home > Led Zeppelin

Candy Store Rock Tab

Led Zeppelin

Difficulty: nolevelnolevel

tuner correct add songbook print version text version save to e-mail
chordsukulelecavacokeyboardtabbassdrumsharmonicsflute Guitar Pro
chords

Candy Store Rock

Year: 1976 - Album: Presence

  		Tuning 
6 5 4 3 2 1 
E A D G B E 
 
 
  Intro 
E|----------------|------------------|----------------|----------------| 
B|----------------|------------------|----------1217--|----------------| 
G|----------------|------------------|--5--50-2-1218--|--5--0--2--5-75-| 
D|-3-3--3---------|-3-3-33-----323---|--5--50-2-------|--5--0--2--5-75-| 
A|----------------|---------------323|0-------------00|0--------------0| 
E|1---------------|1---------11------|----------------|----------------| 
                               \3/\3/ 
 
E|----------------|----------------| 
B|----------1217--|----------------| 
G|--5--50-2-1218--|--5--0--2--5-75-| 
D|--5--50-2-------|--5--0--2--5-75-| 
A|0-------------00|0--------------0| 
E|----------------|----------------| 
 
  Part Two 
E|----------------|----------------|----------------|----------------| 
B|--0-2-0-2--5--7-|--0-2-0-2--7--5-|--0-2-0-2--5--7-|--0-2-0---1212--| 
G|--0-2-0-2--5--7-|--0-2-0-2--7--5-|--0-2-0-2--5--7-|--0-2-0---1314--| 
D|--0-2-0-2--5--7-|--0-2-0-2--7--5-|--0-2-0-2--5--7-|--0-2-0-------14| 
A|----------------|----------------|----------------|----------------| 
E|----------------|----------------|----------------|----------------| 
 
E|----------------|----------------|----------------|----------------| 
B|--0-2-0-2--5--7-|--0-2-0-2--7--5-|--0-2-0-2--5--7-|--0-2-0---1212--| 
G|--0-2-0-2--5--7-|--0-2-0-2--7--5-|--0-2-0-2--5--7-|--0-2-0---1314--| 
D|--0-2-0-2--5--7-|--0-2-0-2--7--5-|--0-2-0-2--5--7-|--0-2-0-------14| 
A|----------------|----------------|----------------|----------------| 
E|----------------|----------------|----------------|----------------| 
 
E|----------------|----------------|----------------|----------------| 
B|--2-5-5--533222-|--2-5-5--533222-|--2-5-5--533222-|--2-5-5--533222-| 
G|--2-5-5--544222-|--2-5-5--544222-|--2-5-5--544222-|--2-5-5--544222-| 
D|--2-5-5--544222-|--2-5-5--544222-|--2-5-5--544222-|--2-5-5--544222-| 
A|--0-------------|--0-------------|--0-------------|--0-------------| 
E|----------------|----------------|----------------|----------------| 
 
E|----------------|----------------| 
B|23332333-3------|233-233--6666-68| 
G|34443444--5-35--|344-344--55557--| 
D|45554555---5--55|455-455---------| 
A|45554555--------|455-455---------| 
E|----------------|----------------| 
 
  Part Three 
E|----------------|----------------|----------------|----------------| 
B|----------------|----------------|----------------|----------------| 
G|----------------|----------------|--0-2-0-2--5--7-|-0--2-0-2--7--5-| 
D|-3-3--3---------|-3-3-33---323---|--0-2-0-2--5--7-|-0--2-0-2--7--5-| 
A|----------------|-------------323|----------------|----------------| 
E|1---------------|1-------11------|----------------|----------------| 
 |                           \3/\3/                                  | 
E|11-11-1---------|11-1-11---111111|----------------|----------------| 
B|11-11-1---------|11-1-11---111111|--0-2-0-2--5--7-|--0-2-0-2--7--5-| 
G|22-22-2---------|22-2-22---222222|--0-2-0-2--5--7-|--0-2-0-2--7--5-| 
D|33-33-3---------|33-3-33---333333|--0-2-0-2--5--7-|--0-2-0-2--7--5-| 
A|----------------|----------------|----------------|----------------| 
E|----------------|----------------|----------------|----------------| 
 
  Guitar Solo (over Part One rhythm) 
E|----------------|----------------|----------------|----------------| 
B|--45------------|--78------------|--1314----------|--1617----------| 
G|--45------------|--78------------|--1314----------|--1617----------| 
D|----------------|----------------|----------------|----------------| 
A|-------------010|-------------710|-------------710|----------------| 
E|----------------|----------------|----------------|----------------| 
 
E|7-58-57-58------|7-58-57-58------|----------------|----------------| 
B|7-58-57-58------|7-58-57-58------|-57888888--88-78|--7-------------| 
G|------------542-|------------542-|-57999999--99-78|--7-575-7-575---| 
D|------------542-|------------542-|----------------|-------7-7----7-| 
A|----------------|----------------|----------------|----------------| 
E|----------------|----------------|----------------|----------------| 
	  

Full key step upFull key step up
Half key step upHalf key step up
Half key step downHalf key step down
Full key step downFull key step down
Search Paypal
auto scroll beats size up size down change color hide chords drawings
tab show chords e-chords YouTube Clip e-chords hide all tabs e-chords go to top tab