Lázaro

Eu te amo tanto

Lázaro

tabs Beginner beginner

by  JONATAS_BLACK

save to print version add songbook text version e-mail correct tuner
chordsukulelecavacokeyboardtabbassdrumsharmonicaflute Guitar Pro
close

there isn't a video lesson for this song

chords

Eu te amo tanto

Year: 2008 - Album: Testemunho e Louvor

	  		Eu te amo tanto 

Esse solo é feito no teclado... mas no violăo fica bem legal! 


Solo de Introduçăo:    G      F/A G/B   C 
      
E:--------------------------------------|----------------------------------------------- 
B:---------------------0--1--3-----5--5-|--1--3--5--1------------3---------------------- 
G:---0--2--4--0--4--4-----------0-------|--------------4---4--5-----4--4--5--2---------- 
D:--------------------------------------|----------------------------------------------- 
A:---------------------------2--2--3--3-|--3--3--3--3---------------0--0--0--5---------- 
E:---3--3--3--3--3--3--3--3-------------|--------------3---3--3--3---------------------- 



Solo no final 

E:-----------------------|---------15--17--18b-18b-18b------------------------------------ 
B:--8-8-8--10-10--8------|--15--17----------------------15b--15/17------------------------ 
G:------------------7/9--|-----------------------------------------14/16---12\------------ 
D:-----------------------|---------------------------------------------------------------- 
A:-----------------------|---------------------------------------------------------------- 
E:-----------------------|---------------------------------------------------------------- 


E:---------------------------------------------------------------------------------------- 
B:------------8-8------------------------------------------------------------------------- 
G:----7h5-7h5------7-7-7(alavanca)-------------------------------------------------------- 
D:--7------------------------------------------------------------------------------------- 
A:---------------------------------------------------------------------------------------- 
E:---------------------------------------------------------------------------------------- 
		  

Full key step upFull key step up
Half key step upHalf key step up
Half key step downHalf key step down
Full key step downFull key step down
hide glossary

See also:

tabs Toque no Altar - Deus De Promessa tabs PG - Meu Universo tabs Atmosfera de Adoraçăo - Agnus Dei(Solo) tabs Atmosfera de Adoraçăo - Agnus Dei(Solo) tabs Oficina G3 - Atitude tabs Atmosfera de Adoraçăo - Aleluia
e-chords

Other versions:

tabs Lázaro - Eu Te Amo Tanto
auto scroll beats size up size down change color hide chords drawings
tab show chords e-chords YouTube Clip e-chords hide all tabs e-chords go to top tab

share