Lay It On The Line

Positive Views

Lay It On The Line

tabs

by  EDSOOLIVEIRA

save to print version add songbook text version e-mail correct tuner
chordsukulelecavacokeyboardtabbassdrumsharmonicaflute Guitar Pro
close

there isn't a video lesson for this song

chords

Positive Views

	  		
INTRO 
   Feedback-----------------------> 
D#|--------------------|--------------------| 
A#|--------------------|--------------------| 
F#|--------------------|--------------------| 
C#|------three-bars----|-----------6-6-6-0--| 
G#|--------------------|-----------6-6-6-0--| 
C#|--------------------|-----------6-6-6-0--| 



VERSE1 strum chords 
D#|--------------------| 
A#|--------------------| 
F#|--4-----------------| 
C#|--4----3----6----0--| x4 
G#|--2----3----6----0--| 
C#|-------3----6----0--| 



Chorus strum chords 
D#|--------------------| 
A#|--------------------| 
F#|--4----4------------| 
C#|--4----4----3----6--| x4 
G#|--2----2----3----6--| 
C#|------------3----6--| 



VERSE2 (bass plays verse1) 
     Hold-------------------------> PM-| 
D#|--------------------|-----------------| 
A#|--------------------|-----------------| 
F#|--4-----------------|-----------------| 
C#|--4-----------------|------------0-0--| 
G#|--2-----------------|------------0-0--| 
C#|--------------------|------------0-0--| 

     Hold------------------------------>   
D#|--------------------|-----------------| 
A#|--------------------|-----------------| 
F#|--4-----------------|-----------------| 
C#|--4-----------------|-----------------| 
G#|--2-----------------|-----------------| 
C#|--------------------|-----------------| 



Chorus strum chords 
D#|--------------------| 
A#|--------------------| 
F#|--4----4------------| 
C#|--4----4----3----6--| x4 
G#|--2----2----3----6--| 
C#|------------3----6--| 



OUTRO strum all chords exept the last one      
D#|--------------------| 
A#|--------------------| 
F#|--4-----------------| 
C#|--4----3----6----0--| x4 
G#|--2----3----6----0--| 
C#|-------3----6----0--| 



*********************************** 
| PM Palm muting  
*********************************** 
		  

See also:

tabs Rocky - Eye Of The Tiger tabs Johnny Cash - Blue Train tabs Johnny Cash - Folsom Prison Blues (key of E) tabs Johnny Rivers - Memphis tabs Johnny Cash - I'm So Lonesome I Could Cry tabs Johnny Cash - personal jesus
e-chords

Other versions:

tabs Lay It On The Line - Positive Views
auto scroll beats size up size down change color hide chords drawings
tab show chords e-chords YouTube Clip e-chords hide all tabs e-chords go to top tab

share with facebook