Lawson

Make It Happen

Lawson

tabs

by  JOAOEWERTON

save to print version add songbook text version e-mail correct tuner
chordsukulelecavacokeyboardtabbassdrumsharmonicaflute Guitar Pro
close

there isn't a video lesson for this song

chords

Make It Happen

	  		
  
  Intro 
e|---------------------------|-----------------------------| 
A|---------------------------|-----------------------------| 
G|----6-6----8-8--------9----|----6-6----8-8-8--------9----| 
D|----6-6----8-8--------9----|----6-6----8-8-8--------9----| 
A|----4-4----6-6--------7----|----4-4----6-6-6--------7----| 
E|----------------------0----|------------------------0----| 

 Verse 

if you want love, 
|--------------------------------------------------------------------| 
|--------------------------------------------------------------------| 
|----6--6----6--6----9--9----9--9----6--6----6--6----6--6----9-------|  x2 
|----6--6----6--6----9--9----9--9----6--6----6--6----6--6----9-------| 
|----4--4----4--4----7--7----7--7----4--4----4--4----4--4----7-------| 
|------------------------------------------------------------0-------| 
 
		  

auto scroll beats size up size down change color hide chords drawings
tab show chords e-chords YouTube Clip e-chords hide all tabs e-chords go to top tab

share