Lady Pank

Maa Lady Pank

Lady Pank

tabs

by  JOAOEWERTON

save to print version add songbook text version e-mail correct tuner
chordsukulelecavacokeyboardtabbassdrumsharmonicaflute Guitar Pro
close

there isn't a video lesson for this song

chords

Maa Lady Pank

	  		
Intro 

e|----------------------------------------0--0-0-----0-----0--0---| 
B|---------------7-5-4--------------2-----0----0---------0-0------| 
G|-------------4-------4---4--2-------2---6----6/8-----8---6------| 
D|-----------6-----------6-4--2---------2-7----7/9---------7------|  x4 
A|-------2/4---------------2--0-----------7----7/9---------7------| 
E|-0-2-4----------------------------------------------------------| 

e|---------| 
B|---------| 
G|---------| 
D|---------| 
A|-------2-| 
E|-0-2-4---| 


************************************ 

| /   Slide up 

************************************ 
		  

auto scroll beats size up size down change color hide chords drawings
tab show chords e-chords YouTube Clip e-chords hide all tabs e-chords go to top tab

share