La Sera

Love Thats Gone

La Sera

tabs Beginner beginner

by  MARCNAGEL

save to print version add songbook text version e-mail correct tuner
chordsukulelecavacokeyboardtabbassdrumsharmonicaflute Guitar Pro
close

there isn't a video lesson for this song

chords

Love Thats Gone

	  		 

Tuning:Standard 

I love my life without you, you cant say a thing  
e|---------------------------------------------------------------------------| 
B|---------------------------------------------------------------------------| 
G|---------------------------------------------------------------------------| 
D|---------------------------------------------------------------------------| 
A|--0--0--0--0--5--5-----------------------------2---------------------------| 
E|--------------------2--2--0--0--0--0--4--2--4------------------------------| 

I feel that I should tell you, can't do anything 
e|---------------------------------------------------------------------------| 
B|---------------------------------------------------------------------------| 
G|---------------------------------------------------------------------------| 
D|---------------------------------------------------------------------------| 
A|--0--0--0--0--5--5--------------------------------2------------------------| 
E|--------------------2--2--0--0--0--0--4--2--4------------------------------| 

You're holdin' on to love that's gone and I'll be gone just as soon 
e|---------------------------------------------------------------------------| 
B|---------------------------------------------------------------------------| 
G|---------------------------------------------------------------------------| 
D|---------------------------------------------------------------------------| 
A|--4--4--4--4--2--2--2--2--4--4--4--4--2--2--2--0---------------------------| 
E|---------------------------------------------------2--2--2--2--0--0--0--0--| 


Repeat for the rest of the song 

I know that you'll be leaving  
Best be on you're way 
I hope that I don't see you 
As you drive away. 

You're holdin' on, 
To love that's gone  
And I'll be gone just 
As soon. 

I'm better off alone now 
You might not agree 
I wish that you would see you're 
Not the one for me. 

You're holdin' on, 
To love that's gone  
And I'll be gone just 
As soon. 

I love my life without you 
You can't say a thing  
I feel that I should tell you 
Can't do anything. 

You're holdin' on, 
To love that's gone  
And I'll be gone just 
As soon. 

You can't say a thing 
Can't do anything 
You can't say a thing 
		  

See also:

tabs Chickenfoot - No Change tabs Chickenfoot - Last Temptation tabs Kylesa - Unknown Awareness tabs Kylesa - To Walk Alone tabs Chickenfoot - Dubai Blues
e-chords

Other versions:

tabs La Sera - Love Thats Gone
auto scroll beats size up size down change color hide chords drawings
tab show chords e-chords YouTube Clip e-chords hide all tabs e-chords go to top tab

share