La renga

home > La renga

Ruta 40 Tab

La renga

Difficulty: ExpertExpert

by emergurjao

tuner correct add songbook print version text version save to e-mail
chordsukulelecavacokeyboardtabbassdrumsharmonicsflute Guitar Pro
chords

Ruta 40

Key:  F#5 More
Ruta 40 Key C#5C#5
Ruta 40 Key D5D5
Ruta 40 Key D#5D#5
Ruta 40 Key E5E5(one step down)
Ruta 40 Key F5F5(half step down)
Ruta 40 Key F#5F#5(original key)
Ruta 40 Key G5G5(half step up)
Ruta 40 Key G#5G#5(one step up)
Ruta 40 Key A5A5
Ruta 40 Key A#5A#5
Ruta 40 Key B5B5
Ruta 40 Key C5C5
  		Intro: B5 

1) 
F#5                A5 
 En donde estés en cualquier lugar 
F#5                   A5 
 y a donde quieras ir tras la tormenta 
F#5                  A5 
 o al viento cabalgar, yendo al norte o al sur 
F#5                   A5 
 ya sin dudar toma la ruta 40 
B5          D5      B5      D5 
rectas, sinuosas lejanas que van 
B5           D5               B5      D5 
 hacia otros mundos que en la mente aguardan 
B5      D5      B5            D5 
 y creo circular  por la ruta que no está 
B5       D5            B5      D5 
 embrujo largo del desierto hacia el alba 

2) (base del estribillo) 
 Em           G            D          A5         B5 
|----0--0--0--3------------2-------------------------------| 
|----0--0--0--0------------3-3---3-------------------------| 
|----0--0--0--0------------2-2---2----2--2--2-2------------| 
|----2—-2--2--0--2-0-----0-0-0---0----2--2--2-2--4--4--4-4-| 
|-2-----2--2--2--------2--------------0--0--0-0--2--2--2-2-| 
|-0-----0--0--3--------------------------------------------| 

 Em           G            D     A5  B5 
|----0--0--0--3---------------------------------------| 
|----0--0--0--0------------3--3-----------------------| 
|----0--0--0--0------------2--2--2-2------------------| 
|----2—-2--2--0--2-0-----0-0--0--2-2-4----------------| 
|-2-----2--2--2--------2---------0-0-2-(deja sonando)-| 
|-0-----0--0--3---------------------------------------| 

Em          G       D           A5           B5 
 rodaras en mí para ver que tan lejos podría ser 
          Em        G         D             A5     B5 
esta por acá, no lo ves el lugar ese al que querés ir 

1) 
si hasta tu alma querías llegar 
has elegido el camino correcto 
la huella que se va borrando por detrás 
en esta soledad que me ha descubierto 
el espíritu viejo aún vive acá 
cruza tu paso arremolinando el polvo 
te quiere acariciar, en tus áspero seguir 
el sabe que al q vas se llega por aquí 

3) (base del otro estribillo) 
 Em           G            D          A5         B5 
|----0--0--0--3------------2-------------------------------| 
|----0--0--0--0------------3-3---3-------------------------| 
|----0--0--0--0------------2-2---2----2--2--2-2------------| 
|----2—-2--2--0--2-0-----0-0-0---0----2--2--2-2--4--4--4-4-| 
|-2-----2--2--2--------2--------------0--0--0-0--2--2--2-2-| 
|-0-----0--0--3--------------------------------------------| 

 Em           G            D     A5  B5 
|----0--0--0--3--------------------------------| 
|----0--0--0--0------------3--3----------------| 
|----0--0--0--0------------2--2--2-2-----------| 
|----2—-2--2--0--2-0-----0-0--0--2-2-4--4--4-4-| 
|-2-----2--2--2--------2---------0-0-2--2--2-2-| 
|-0-----0--0--3--------------------------------| 

 Em           G            D     A5  B5 
|-------------3--------------------------------| 
|-------------0------------3--3----------------| 
|---2b--0-----0------------2--2--2-2-----------| 
|-----—---2-0-0--2-0-----0-0--0--2-2-4--4--4-4-| 
|-2-----------2--------2---------0-0-2--2--2-2-| 
|-0-----------3--------------------------------| 

 Em           G            D     A5  B5 
|--7b--7b--7b--3---------------------------------------| 
|--10b-10b-10b-0------------3--3-----------------------| 
|--------------0------------2--2--2-2------------------| 
|----—---------0--2-0-----0-0--0--2-2-4----------------| 
|-2------------2--------2---------0-0-2-(deja sonando)-| 
|-0------------3---------------------------------------| 

Em          G       D            A5          B5 
 rodaras en mí para ver que tan lejos podría ser 
          Em        G        (D     -    A5)   B5 
esta por acá, no lo ves el lugar ese al querés ir 
              Em        G         (D   -   A5)    B5 
no solo llegaras sin saber es que nunca podrás volver 
             Em         G            (D   -    A5)  B5 
ella estará ahí bajo el sol, o en la nieve esperándote 

Solo en 1) 

3) 
rodaras en mí para ver que tan lejos podría ser 
esta por acá, no lo ves el lugar es al que querés ir 
no solo llegaras sin saber es que nunca podrás volver 
ella ya estará ahí bajo el sol, o en la nieve esperándote 

Final: 
 Em           G            D     A5  B5 
|----0--0--0--3--------------------------------| 
|----0--0--0--0------------3--3----------------| 
|----0--0--0--0------------2--2--2-2-----------| 
|----2—-2--2--0--2-0-----0-0--0--2-2-4--4--4-4-| x2 
|-2-----2--2--2--------2---------0-0-2--2--2-2-| 
|-0-----0--0--3--------------------------------| 

(esta parte la hace con octavas) 
|------------------------------------| 
|------------------------------------| 
|-9---7--9--11-9--9----------7--6--4-| 
|-x---x--x--x--x--x--9s7--7--x--x--x-| 
|-7---5--7--9--7--7--x-x--x--5--4--2-| 
|--------------------7s5--5----------| 

|-------------------------------------------------00000000000------------| 
|-------------------------------------------------00000000000------------| 
|-9---11-12-14-12-12------------------------------44444444444----------4-| 
|-x---x--x--x--x--x--9s7--7-7-7-7-7--12--11-9--7--44444444444----------4-| 
|-7---9--10-12-10-10--x---x-x-x-x-x--x---x--x--x--22222222222----------2-| 
|--------------------7s5--5-5-5-5-5--10~-9~-7~-5~------------------------| 

aguante la Renga... un Temaso... saludos
	  

Full key step upFull key step up
Half key step upHalf key step up
Half key step downHalf key step down
Full key step downFull key step down
Search Paypal
auto scroll beats size up size down change color hide chords drawings
tab show chords e-chords YouTube Clip e-chords hide all tabs e-chords go to top tab