La renga

home > La renga

Reite Tab

La renga

Difficulty: nolevelnolevel

by emergurjao

tuner correct add songbook print version text version save to e-mail
chordsukulelecavacokeyboardtabbassdrumsharmonicsflute Guitar Pro
chords

Reite

(Gustavo Napoli)

  		Bueno gente…aca les tengo este terrible solo q suena MUY BIEN. 
No es facil de sacarlo,les recomiendo q lo saquen de a partes. 




|----------------------------------------------------------------- 
|--13p11p10h12p11p10----13p11p10h12p11p10-----13p11p10h12p11p10--- 
|----------------------------------------------------------------- 
|----------------------------------------------------------------- 
|----------------------------------------------------------------- 
|----------------------------------------------------------------- 

------------------------------------------------------------------ 
---13p11p10h12p11p10---13p11p10h12p11p10---13p11p10h12p11p10------ 
------------------------------------------------------------------ 
------------------------------------------------------------------ 
------------------------------------------------------------------ 
------------------------------------------------------------------ 

----------------------------------------------------12------------ 
14b~~~~~--14bba-14ba-14p12--------12---s10-10-10-10----10s-------- 
----------------------------14-14--------------------------------- 
------------------------------------------------------------------ 
------------------------------------------------------------------ 
------------------------------------------------------------------ 

--------------------------------------------------|--------------- 
--------------------------------------------------|--------------- 
--12b-12p10-----10----12-10-----------------------|--------------- 
--------------12----12-------12-10—---------------|--------------- 
-----------------------------------12-11-10-9-9~--|--9-11p9-10p9-- 
--------------------------------------------------|--------------- 

------------------------------------------------------------------ 
------------------------------------------------------------------ 
-----------------------------------------------------7b~~~-7bap5h7 
-------------------------------------------------7-8-------------- 
--11p9-10p9--------------------------3-4-5-6-7-8------------------ 
------------10-9-8-9-8-9-8-9-8-9-8-9------------------------------ 

------------------------------------------------------|----------- 
------------------------------------------------------|----6-8s10- 
-p5h7-5-5---------------------------------------------|-s7-------- 
------5-5—5h7p5h7p5h7p5h7p5h7-5-5h7p5h7p5h7p5h7p5h7-5-|----------- 
------------------------------5---------------------5-|----------- 
------------------------------------------------------|----------- 
                     *                          * 
-------------------------17bba-17-15------21ba-21b-19h21p19-19-s19 
-10—12b-12-10-12~~--15b--------------17--------------------------- 
--9--------------------------------------------------------------- 
------------------------------------------------------------------ 
------------------------------------------------------------------ 
------------------------------------------------------------------ 
         *              * 
-h21p19-21b—19h21p19-s16b----------------------------------------| 
--------------------------s-17x17x17x17-s-xx17x17x17-------------| 
--------------------------s-17x17x17x17-s-xx17x17x17-------------| 
-----------------------------------------------------------------| 
-----------------------------------------------------------------| 
-----------------------------------------------------------------| 


Vibrado             ~ 
Estirar             b 
Estirar y Bajar     ba 
Cuando pongo        bba es q estira y estira de nuevo y baja 
Ligado Ascendente   h 
Ligado Descendente  p 
Slide               s 
Cuando pongo        * es q estira varias veces 
Cuando pongo        x es q machaca las cuerdas marcadas haciendolas sonar 



Esto es Todo…Espero q lo puedan sacar. Aguante La Renga. 
                                                              RoDrI.
	  

Search Paypal
auto scroll beats size up size down change color hide chords drawings
tab show chords e-chords YouTube Clip e-chords hide all tabs e-chords go to top tab