Kyo

L'équilibre

Kyo

tabs

by  PAULANTUNES

save to print version add songbook text version e-mail correct tuner
chordsukulelecavacokeyboardtabbassdrumsharmonicaflute Guitar Pro
close

there isn't a video lesson for this song

chords

L'équilibre

	  		
Intro/verse 1: 

e|----------------------------------------------------------------| 
B|----17----17----------17----17-------17----17----------17----17-| 
G|-17----17----17-17-17----17----16-16----16----16-16-16----16----| 
D|----------------------------------------------------------------| 
A|----------------------------------------------------------------| 
E|----------------------------------------------------------------| 

e|----------------------------------------------------------------| 
B|----15----15----------13----13----12----12----------12----12----| 
G|-14----14----14-14-14----14----13----13----13-13-13----13-------| 
D|----------------------------------------------------------------| 
A|----------------------------------------------------------------| 
E|----------------------------------------------------------------| 

(a second guitar play this part along) 

e|-------------------------------------| 
B|-------------------------------------| 
G|---5-5-5/9/4-4-4-4/7-7/5-5/4-4-4-4---| 
D|-------------------------------------| 
A|-------------------------------------| 
E|-------------------------------------| 


Chorus: x2 

e|---------------------------------------| 
B|---------------------------------------| 
G|---------------------5-----------------| 
D|---7--------3--------5-(x8)---5--------| 
A|---7-(x8)---3-(x8)---3--------5-(x8)---| 
E|---5--------1-----------------3--------| 

end on: 

e|-------| 
B|-------| 
G|-------| 
D|---7---| 
A|---7---| 
E|---5---| 



verse 2: (all verse long) 

e|-----------------| 
B|---17-18-17-15---| 
G|-----------------| 
D|-----------------| 
A|-----------------| 
E|-----------------| 

(this part is play along again around the middle of the verse) 

e|-------------------------------------| 
B|-------------------------------------| 
G|---5-5-5/9/4-4-4-4/7-7/5-5/4-4-4-4---| 
D|-------------------------------------| 
A|-------------------------------------| 
E|-------------------------------------| 

 

Chorus: x2 

e|---------------------------------------| 
B|---------------------------------------| 
G|---------------------5-----------------| 
D|---7--------3--------5-(x8)---5--------| 
A|---7-(x8)---3-(x8)---3--------5-(x8)---| 
E|---5--------1-----------------3--------| 

end on: 

e|-------| 
B|-------| 
G|-------| 
D|---7---| 
A|---7---| 
E|---5---| 

 

verse 3 

e|---17---15---17---15---13---12---| 
B|---------------------------------| 
G|---------------------------------| 
D|---------------------------------| 
A|---------------------------------| 
E|---------------------------------| 

 

Chorus x2 (only play each note 4 times the first time) 

e|---------------------------------------| 
B|---------------------------------------| 
G|---------------------5-----------------| 
D|---7--------3--------5-(x8)---5--------| 
A|---7-(x8)---3-(x8)---3--------5-(x8)---| 
E|---5--------1-----------------3--------| 

end on: 

e|-------| 
B|-------| 
G|-------| 
D|---7---| 
A|---7---| 
E|---5---| 


verse 4 

e|---------------------------------------| 
B|---------------------------------------| 
G|---------------------5-----------------| 
D|---7--------3--------5-(x8)---5--------| 
A|---7-(x8)---3-(x8)---3--------5-(x8)---| 
E|---5--------1-----------------3--------| 

an orchestral part is played along (a lot of times), you can play it this way 

e|------------------------------------------| 
B|---15---13---12---13----------------------| 
G|-----------------------12-----7-9-10-12---| 
D|------------------------------------------| 
A|------------------------------------------| 
E|------------------------------------------| 

and the very last one is played this way (hold the last note) 

e|------------------------------------------| 
B|---15---13---12---13----------------------| 
G|-----------------------12-----5-----------| 
D|------------------------------------------| 
A|------------------------------------------| 
E|------------------------------------------| 

 
		  

See also:

tabs Deep Purple - Demonds Eye tabs Deep Purple - Money Talks tabs Ira! - Eu Quero Sempre Mais (Com Pitty, intro) tabs Albert Hammond Jr - Holiday tabs Deep Purple - Smoke on the water (intro) tabs Deep Purple - Smoke on the Water (ver. 2)
e-chords

Other versions:

tabs Kyo - L'équilibre
auto scroll beats size up size down change color hide chords drawings
tab show chords e-chords YouTube Clip e-chords hide all tabs e-chords go to top tab

share