Kygo

home > Kygo

It Ain't Me Tab

Kygo

Difficulty: nolevelnolevel

by Teusalves

tuner correct add songbook print version text version save to e-mail
chordsukulelecavacokeyboardtabbassdrumsharmonicsflute Guitar Pro
chords

It Ain't Me

  		
Solo 


|-------7--------7--------10-| 
|-8--------8--------8--------| 
|----7--------7--------7-----| 
|----------------------------| 
|----------------------------| 
|----------------------------| 

|-------7--------7--------7--------10-| 
|-8--------8--------8--------8--------| 
|----7--------7--------7--------7-----| 
|-------------------------------------| 
|-------------------------------------| 
|-------------------------------------| 

|-------7--------7--------7--| 
|-8--------8--------8--------| 
|----7--------7--------7-----| 
|----------------------------| 
|----------------------------| 
|----------------------------| 

|-------7-----7--------10--7--------7--------7--5-| 
|-7--------7-----7--8---------8--------8----------| 
|----7---------------------------7--------7-------| 
|-------------------------------------------------| 
|-------------------------------------------------| 
|-------------------------------------------------| 
	  

Search Paypal
auto scroll beats size up size down change color hide chords drawings
tab show chords e-chords YouTube Clip e-chords hide all tabs e-chords go to top tab