Kurt Vile

Classic Rock In Spring

Kurt Vile

tabs nolevel nolevel

by  LUCICAMARGO

save to print version add songbook text version e-mail correct tuner
chordsukulelecavacokeyboardtabbassdrumsharmonicaflute Guitar Pro
close

there isn't a video lesson for this song

chords

Classic Rock In Spring

	  		

 
 Standard Tuning 

Off his debut "Constant Hitmaker" 

If you know the song well enough, it shouldn't be difficult to figure out where these parts fit in. 

Please leave suggestions if anything's wrong; I'm glad to edit this if necessary. 


Intro / Recurring descending part: 
e|-0---0---0--0---0--| 
B|-3---2---1---1-----| 
G|-4-4-3-3-2-2--2----| 
D|-5---4---3------3--| 
A|-------------------| 
E|-------------------| 

Verse ("Hey, how are ya?"):  repeat this until: 
e|-0---0---0--0--0--0--0--0---0--0--0--0-------------------------| 
B|-3---2---1---1---1---2---2--1---1---1--------------------------| 
G|-4-4-3-3-2-2--2-2--2-3-3--3-2-2--2-2--2------------------------| 
D|-5---4---3-----3-----4------3-----3----------------------------| 
A|---------------------------------------------------------------| 
E|---------------------------------------------------------------| 

"Hear that Bob Seeger song" / "Nonsense sustaining": 
e|----------------------------0-----| 
B|-5--5---5--5---3---3-1--1------1--| 
G|-6---6--6---6--4--4--2---2----2---| 
D|-7-7--7-7-7--7-5-5---3-3--3--3--3-| 
A|-0----5-7------5-----3------3-----| 
E|----------------------------------| 

Solo-ish part (repeats a few times / I added fill at end): 
e|-0------0----------0---0------0-----------------0--0------0-| 
B|---2----1--------1-------2----1-------1-------5-3--1----1---| 
G|--3--3--2--2--0h2-------3--3--2--2-0h2--2----------2-0h2-2--| 
D|-4----4-3-3--3----3--3-4----4-3-3-3----3-3---------3-----3--| 
A|------------------------------------------------------------| 
E|------------------------------------------------------------| 

Hey how are ya? 
You sure got a way of greeting a man 
Might I add the perfect sun tan 
You're riding on your yellow Schwinn 
While blasting classic rock in spring 
A couple of summer demons 
With battery recharging 
When you hear the Bob Seger song 
You know I'll be long gone 
Cutting all my classes 
Like a hit of acid 
Hey how are ya? 

Like a dog on a telephone 
There is nonsense sustaining 
And staying on ya getting off 
You find yourself much better off 
Feeling a bit less softer even 
But coughing up a lung and then some 
Yeah, you know I got your battery recharger right here 
And hey how are ya? 

Enjoy. 
		  

See also:

tabs Red Hot Chili Peppers - Around The World (ver. 2) tabs Red Hot Chili Peppers - Dani California (ver.2) tabs Red Hot Chili Peppers - By The Way (intro) tabs Red Hot Chili Peppers - Snow hey oh tabs Red Hot Chili Peppers - Don't Forget Me tabs Good Charlotte - Emotionless
e-chords

Other versions:

tabs Kurt Vile - Classic Rock In Spring
auto scroll beats size up size down change color hide chords drawings
tab show chords e-chords YouTube Clip e-chords hide all tabs e-chords go to top tab

share with facebook