Krisiun

home > Krisiun

Ageless Venomous Tab

Krisiun

Difficulty: BeginnerBeginner

by VELHO

tuner correct add songbook print version text version save to e-mail
chordsukulelecavacokeyboardtabbassdrumsharmonicsflute Guitar Pro
chords

Ageless Venomous

  		.  - palm mute          /  - slide up to 
  - slide down to      ~  - vibrato 
h  - hammer on          b  - bend 
p  - pull off            Suffixes for bend 
                          ph - pinch harmonic 
                           f - full bend    h - half bend 
*  - see comment           r - release      t - tap bend 
X  - percussion mute       ~ - vibrato bend 
@  - slight palm mute     () - ghost note, sustained note 

I = guitarra uma, do canal esquerdo  
II - guitarra dois, do canal direito  


Riff 1 (2 times) 
|------------------------------------| 
|------------------------------------| 
|-4-4------4-4------4-4--------------|I 
|-2-2------2-2------2-2--------------|II 
|-2-2------2-2------2-2--------------| 
|-0-0------0-0------0-0--------------| 

Riff 2 (2 times) 
|---------------------------------------------------------------| 
|---------------------------------------------------------------| 
|---------------------------------------------------------------|I 
|-------------7-8-10-------8-9-11------------7-8-10------8-9-11-|II 
|-------7-8-10-------8-9-11------------7-8-10------8-9-11-------| 
|-0--0---------------------------0--0---------------------------| 
  .  .                           .  . 
Riff 2 cont. 
|--------------------------------------------------------| 
|--------------------------------------------------------| 
|--------------------------------------------------------|I 
|-------------7-8-10------8-9-11------111214------141517-|II 
|-------7-8-10------8-9-11------111214------141517-------| 
|-0--0---------------------------------------------------| 
  .  . 
*vá em linha reta fora de Riff 1, o primeiro 0--0, são realmente cordas do power, mas ao não sair de Riff 1, ele são como escrito aqui.  

Riff 3 (2 times) 
|---------------------------------------------------------------| 
|---------------------------------------------------------------| 
|---------------------------------------------------------------|I 
|-------------7-8-10------8-9-11-------------7-8-10------8-9-11-| 
|-------7-8-10------8-9-11-------------7-8-10------8-9-11-------| 
|-0--0---------------------------0--0---------------------------| 
| .  .                           .  . 
|---------------------------------------------------------------| 
|---------------------------------------------------------------| 
|---------------------------------------------------------------|II 
|-------------101113------111214-------------101113------111214-| 
|-------101113------111214-------------101113------111214-------| 
|-0--0---------------------------0--0---------------------------| 
  .  .                           .  . 
Riff 3 cont. 
|--------------------------------------------------------| 
|--------------------------------------------------------| 
|--------------------------------------------------------|I 
|-------------7-8-10------8-9-11------111214------141517-| 
|-------7-8-10------8-9-11------111214------141517-------| 
|-0--0---------------------------------------------------| 
| .  . 
|--------------------------------------------------------| 
|--------------------------------------------------------| 
|--------------------------------------------------------|II 
|-------------101113------111214------141517------171820-| 
|-------101113------111214------141517------171820-------| 
|-0--0---------------------------------------------------| 
  .  . 

Riff 4 (1 times) 
|--------------------------------------------------------------------| 
|--------------------------------------------------------------------| 
|--------------------------------------91012-------------------------|I 
|-------------------------111214-91012------------------------111214-| 
|-------------121315111214------------------------121315111214-------| 
|-0--0--121315------------------------------121315-------------------| 
| .  . 
|--------------------------------------------------------------------| 
|-------------------------------------121315-------------------------| 
|-------------------------131416111214------------------------131416-|II 
|-------------141517131416------------------------141517131416-------| 
|-------141517------------------------------141517-------------------| 
|-0--0---------------------------------------------------------------| 
  .  . 
Riff 4 cont. 
|--------------------------------------------------------------------| 
|--------------------------------------------------------------------| 
|--------91012------------------------------121315-------------------|I 
|--91012------------------------141517121315-------------------------| 
|-------------------151618141517------------------------151618141517-| 
|-------------151618------------------------------151618-------------| 
| 
|--------------------------------------------------------------------| 
|-------121315------------------------------151618-------------------| 
|-111214------------------------161719141517-------------------------|II 
|-------------------171820161719------------------------171820161719-| 
|-------------171820------------------------------171820-------------| 
|--------------------------------------------------------------------| 

Riff 4 cont. 
|--------------------| 
|--------------------| 
|-------------121315-|I 
|-141517121315-------| 
|--------------------| 
|--------------------| 
| 
|--------------------| 
|-------------151618-| 
|-161719141517-------|II 
|--------------------| 
|--------------------| 
|--------------------| 

Riff 5 (1 time) 
|---------------------------------------------------------------| 
|---------------------------------------------------------------| 
|---------------------------------------------------------------|I 
|---------------------------------------------------------------| 
|--------------3-4-6-------1-2-4--------------3-4-6-------1-2-4-| 
|-0--0---3-4-6-------1-2-4-------0--0---3-4-6-------1-2-4-------| 
| .  .                           .  . 
|---------------------------------------------------------------| 
|---------------------------------------------------------------| 
|---------------------------------------------------------------|II 
|-------------101113------8-9-11-------------101113------8-9-11-| 
|-------101113------8-9-11-------------101113------8-9-11-------| 
|-0--0---------------------------0--0---------------------------| 
  .  .                           .  . 
Riff 5 cont. 
|--------------------------------------------------------| 
|--------------------------------------------------------| 
|--------------------------3-4-6-------------------6-7-9-|I 
|--------------------3-4-6-------------------6-7-9-------| 
|--------------3-4-6-------------------6-7-9-------------| 
|-0--0---3-4-6-------------------6-7-9-------------------| 
| .  . 
|--------------------------------------------------------| 
|--------------------------------------------------------| 
|--------------------------6-7-9-------------------91012-|II 
|--------------------6-7-9-------------------91012-------| 
|--------------6-7-9-------------------91012-------------| 
|-0--0---6-7-9-------------------91012-------------------| 
  .  . 
Riff 5 cont. 
|---------------------------------------------------------------| 
|---------------------------------------------------------------| 
|---------------------------------------------------------------|I 
|---------------------------------------------------------------| 
|--------------3-4-6-------1-2-4--------------3-4-6-------1-2-4-| 
|-0--0---3-4-6-------1-2-4-------0--0---3-4-6-------1-2-4-------| 
| .  .                           .  . 
|---------------------------------------------------------------| 
|---------------------------------------------------------------| 
|---------------------------------------------------------------|II 
|-------------101113------8-9-11-------------101113------8-9-11-| 
|-------101113------8-9-11-------------101113------8-9-11-------| 
|-0--0---------------------------0--0---------------------------| 
  .  .                           .  . 
Riff 5 cont. 
|--------------------------------------------------------------------| 
|--------------------------------------------------------------------| 
|--------------------------3-4-6-------------------6-7-9-------------|I 
|--------------------3-4-6-------------------6-7-9-------------------|II 
|--------------3-4-6-------------------6-7-9-------------------91012-| 
|-0--0---3-4-6-------------------6-7-9-------------------91012-------| 
  .  . 
Riff 5 cont. 
|--------------------------------------| 
|--------------------------------------| 
|--------91012------------------121315-|I 
|--91012------------------121315-------|II 
|-------------------121315-------------| 
|-------------121315-------------------| 

Repita Riff 1 (2 times) 
Repita Riff 3 (2 times) 
Repita Riff 1 (2 times) 
Repita Riff 2 (2 times) 
Repita Riff 4 (1 time) 
Repita Riff 5 (1 time) 

Riff 6 (4 times) 
|-------------------------------------------------------| 
|-------------------------------------------------------| 
|-----10--9------10--9------10--9-10-16"-15--12-13-10---|I 
|-------------------------------------------------------| 
|------8--7-------8--7-------8--7--8-14"-13--10-11--8---| 
|-0-0--------0-0--------0-0-----------------------------| 
| . .        . .        . . 
|-------------------------------------------------------| 
|-------------------------------------------------------| 
|-----10--9------10--9------10--9-10-16"-15--12-13-10---|II 
|-----10--9------10--9------10--9-10-16"-15--12-13-10---| 
|------8--7-------8--7-------8--7--8-14"-13--10-11--8---| 
|-0-0--------0-0--------0-0-----------------------------| 
  . .        . .        . . 

Riff 7 (4 times) 
|------------------------------------------------------------------| 
|------------------------------------------------------------------| 
|-----8--------8-------9-8-5-8-4~------8-------8------9-8-9-10-9~--|I 
|------------------------------------------------------------------|II 
|-----6--------6-------7-6-3-6-2~------6-------6------7-6-7--8-7~--| 
|-0"------0"-------0"--------------0"------0"-----0"---------------| 


Riff 8 (4 times) 
|----------------------| 
|----------------------| 
|-----4--5------3--4---|I 
|-2-2-4--5--2-2-3--4---|II 
|-2-2-2--3--2-2-1--2---| 
|-0-0-------0-0--------| 
  . .       . . 

Riff 9 (4 times) 
|-----------------------------------| 
|-----------------------------------| 
|-----------------------------------|I 
|-----------------------------------| 
|--7"-8--10"11--10"11--13"14--13"---| 
|-----------------------------------| 
| 
|-----------------------------------| 
|-----------------------------------| 
|-----------------------------------|II 
|-----------------------------------| 
|-10"11--13"14--13"14--16"17--16"---| 
|-----------------------------------| 

Riff 10 (4 times) 
|-----------------------------------| 
|-----------------------------------| 
|-----------------------------------|I 
|-----------------------------------| 
|--7"-8--10"11--10"11--13"14--13"---| 
|-----------------------------------| 
| 
|-----------------------------------| 
|-----------------------------------| 
|--9"10--12"13--12"13--15"16--15"---|II 
|-----------------------------------| 
|-----------------------------------| 
|-----------------------------------| 

Riff 11 (2 times) 
|-----------------------------------| 
|-----------------------------------| 
|-----------------------------------|I 
|--7"-8--10"11--10"11--13"14--13"---|II 
|-----------------------------------| 
|-----------------------------------| 

Riff 12 (2 times) 
|-----------------------------------| 
|-----------------------------------| 
|-----------------------------------|I 
|--7"-8--10"11--10"11--13"14--13"---| 
|-----------------------------------| 
|-----------------------------------| 
| 
|-----------------------------------| 
|-----------------------------------| 
|-----------------------------------|II 
|-10"11--13"14--13"14--16"17--16"---| 
|-----------------------------------| 
|-----------------------------------| 

Riff 13 (2 times) 
|----------------------------------| 
|----------------------------------| 
|----------------------------------|I 
|----------------------------------|II 
|-7"-8--10"11--10"11--13"14--13"---| 
|----------------------------------| 

Riff 14 (4 times) 
|----------------------------------------------------| 
|----------------------------------------------------| 
|-----9--10------10--9------9--10---13-10--9-10--9---|I 
|----------------------------------------------------| 
|-----7---8-------8--7------7---8---11--8--7--8--7---| 
|-0-0--------0-0--------0-0--------------------------| 
| . .        . .        . . 
|----------------------------------------------------| 
|----------------------------------------------------| 
|----------------------------------------------------|II 
|-----2---3------3---2------2---3----6--3--2--3--2---| 
|-----2---3------3---2------2---3----6--3--2--3--2---| 
|-0-0-0---1--0-0-1---0--0-0-0---1----4--1--0--1--0---| 
  . .        . .        . .                .  . 

Repeat Riff 2 (2 times) 

Ending 
|-------------------------------------------------------------------| 
|-------------------------------------------------------------91012-| 
|-------------------3-4-6-------------------6-7-9------8-9-11-------|I 
|-------------3-4-6-------------------6-7-9------8-9-11-------------| 
|-------3-4-6-------------------6-7-9-------------------------------| 
|-3-4-6-------------------6-7-9-------------------------------------| 
| 
|-------------------------------------------------------------------| 
|------------------------------------------------------------121315-| 
|-------------------6-7-9-------------------91012------111214-------|II 
|-------------6-7-9-------------------91012------111214-------------| 
|-------6-7-9-------------------91012-------------------------------| 
|-6-7-9-------------------91012-------------------------------------| 

Ending cont. 
|--91012------------------121315------121315------121315------151618-| 
|-------------------121315------121315------121315------151618-------| 
|-------------111214-------------------------------------------------|I 
|-------111214-------------------------------------------------------| 
|--------------------------------------------------------------------| 
|--------------------------------------------------------------------| 
| 
|-121315------------------151618------151618------151618------181921-| 
|-------------------151618------151618------151618------181921-------| 
|-------------141517-------------------------------------------------|II 
|-------141517-------------------------------------------------------| 
|--------------------------------------------------------------------| 
|--------------------------------------------------------------------| 

Ending cont. 
|-------151618-18fb--18fb--------| 
|-151618-------------------------| 
|--------------------------------|I 
|--------------------------2-2---| 
|--------------------------2-2---| 
|--------------------------0-0---| 
| 
|-------181921-21fb--21fb--------| 
|-181921-------------------------| 
|--------------------------------|II 
|--------------------------2-2---| 
|--------------------------2-2---| 
|--------------------------0-0---| 
	  

Search Paypal
auto scroll beats size up size down change color hide chords drawings
tab show chords e-chords YouTube Clip e-chords hide all tabs e-chords go to top tab