Krisiun

home > Krisiun

Aborticide Tab

Krisiun

Difficulty: nolevelnolevel

by VELHO

tuner correct add songbook print version text version save to e-mail
chordsukulelecavacokeyboardtabbassdrumsharmonicsflute Guitar Pro
chords

Aborticide

  		  - palm mute                    /  - slide up to 
  - slide down to                ~  - vibrato 
h  - hammer on                    b  - bend 
p  - pull off                          Suffixes for bend 
ph - pinch harmonic                     f - full bend    h - half bend 
*  - see comment                        r - release      t - tap bend 
X  - percussion mute                    ~ - vibrato bend 
@  - slight palm mute             () - ghost note, sustained note 
"  - tremolo pick until next note  sh - semi harmonic 

Tune to D (D,G,C,F,A,D) 

Intro 
|-----------------| 
|-----------------| 
|-----------------|left 
|-----------------| gtr 
|-777777777777777-| 
|-000000000000000-| 


Riff a1 
|--------------------------------------------------| 
|--------------------------------------------------| 
|--------------------------------------------------|left 
|--------------------------------------------------| gtr 
|-7"-6"-8"-7"-6"-5"-7"----7"-6"-8"-7"-6"-5"-7"-----| 
|----------------------0"----------------------0"--| 
| 
|--------------------------------------------------| 
|--------------------------------------------------| 
|--------------------------------------------------|right 
|-------------------------------------------9------| gtr 
|-------------------------------------------7------| 
|-------------------------------------------0------| 

Riff a1 continued 
|--------------------------------------------------| 
|--------------------------------------------------| 
|--------------------------------------------------|left 
|-------------------------------------------9------| gtr 
|-7"-6"-8"-7"-6"-5"-7"----7"-6"-8"-7"-6"-5"-7------| 
|----------------------0"-------------------0--0"--| 
| 
|--------------------------------------------------| 
|--------------------------------------------------| 
|--------------------------------------------------|right 
|-9-----9-----9-----9-----9-----9-----9-----9------| gtr 
|-7-----7-----7-----7-----7-----7-----7-----7------| 
|-0-----0-----0-----0-----0-----0-----0-----0------| 


Riff 1  (7 times) 
|--------------------------| 
|--------------------------| 
|--------------------------| 
|-------------------9------| 
|-7"-6"-8"-7"-6"-5"-7------| 
|-------------------0--0"--| 


Riff 2  (13 times) 
|---------------------------| 
|---------------------------| 
|---------------------------| 
|---------------------------| 
|-10"-7"-9"-6"-8"-5"-7"-4"--| 
|---------------------------| 
   *1st time is left guitar only 

Repeat Riff 1  (4 times) 
Repeat Riff 2  (12 times) 


Fill 1 
|------| 
|------| 
|------| 
|------| 
|------| 
|-/12-| 


Riff 3a 
|-----------------------------------------------------------| 
|-----------------------------------------------------------| 
|-----------------------------------------------------------| 
|-------------------------------------------------------ph--| 
|-7-----8-----7-----6-----5-----7-----8-----7-----6-----5~--| 
|---0-0---0-0---0-0---0-0---0-0---0-0---0-0---0-0---0-0-----| 
|   . .   . .   . .   . .   . .   . .   . .   . .   . . 
|-----------------------------------------------------------| 
|-----------------------------------------------------------| 
|-----------------------------------------------------------| 
|-----------------------------------------------------------| 
|-------------------------------------------------------5~--| 
|-----------------------------------------------------------| 


Riff 3  (16 times) 
|-----------------------------------------------------------| 
|-----------------------------------------------------------| 
|-----------------------------------------------------------| 
|-9----10-----9-----8-----7-----9----10-----9-----8-----7~--| 
|-7-----8-----7-----6-----5-----7-----8-----7-----6-----5~--| 
|---0-0---0-0---0-0---0-0---0-0---0-0---0-0---0-0---0-0-----| 
|   . .   . .   . .   . .   . .   . .   . .   . .   . .  
|-----------------------------------------------------------| 
|-----------------------------------------------------------| 
|-----------------------------------------------------------| 
|-------------------------------------------------------sh--| 
|-7-----8-----7-----6-----5-----7-----8-----7-----6-----5~--| 
|---0-0---0-0---0-0---0-0---0-0---0-0---0-0---0-0---0-0-----| 
    . .   . .   . .   . .   . .   . .   . .   . .   . . 

Riff 4a  (1 time) 
|-----------------------------------| 
|-----------------------------------| 
|-----------------------------------| 
|-----------------------------------| 
|---4"5"10"-9"----------------------| 
|-2"-----------10"-9"-6"-5"-3"-2"---| 


Riff 4b  (2 times) 
|-----------------------------------| 
|-----------------------------------| 
|-----------------------------------| 
|-----------------------------------| 
|-4"-5"-10"-9"----------------------| 
|--------------10"-9"-6"-5"-3"-2"---| 


Riff 5a  (1 time) 
|-------------------------------------| 
|-------------------------------------| 
|-------------------------------------| 
|-------------------------------------| 
|---7"8"12"-11"-----------------------| 
|-5"------------13"-12"-9"-8"-6"-5"---| 


Riff 5b  (2 times) 
|-------------------------------------| 
|-------------------------------------| 
|-------------------------------------| 
|-------------------------------------| 
|-7"-8"-12"-11"-----------------------| 
|---------------13"-12"-9"-8"-6"-5"---| 

Repeat Riff 4a  (1 time) 
Repeat Riff 4b  (2 times) 

Under solo 

Riff 6  (7 times) 
|------------------------------| 
|------------------------------| 
|------------------------------| 
|------------------------------| 
|-7"-8"-12"-11"-7"-8"-11"-10"--| 
|------------------------------| 


Riff 7  (1 time) 
|--------------------------------------------------------------| 
|--------------------------------------------------------------| 
|--------------------------------------------------------------| 
|--------------------------------------------------------------| 
|--------------------------------------------------------------| 
|-5"---8"---12"---8"---5"---8"---7"---6"---5"---8"---7"---6"---| 

Repeat Riff 2  (4 times) 

Fill 2  (left guitar only) 
|-------| 
|-------| 
|-------| 
|-------| 
|-------| 
|-24\-| 

Repeat Riff 1  (5 times) 
     *1st time is left gtr only. 

Riff 1b  (1 time) 
|--------------------------| 
|--------------------------| 
|--------------------------|left 
|-9"-8"10"-9"-8"-7"-9------| gtr 
|-7"-6"-8"-7"-6"-5"-7------| 
|-------------------0--0"--| 
| 
|--------------------------| 
|--------------------------| 
|--------------------------|right 
|-------------------9------| gtr 
|-7"-6"-8"-7"-6"-5"-7------| 
|-------------------0--0"--| 

Repeat Riff 1  (1 time) 

Ending 
|--------------------------| 
|--------------------------| 
|--------------------------|left 
|-9"-8"10"-9"-8"-7"-9------| gtr 
|-7"-6"-8"-7"-6"-5"-7------| 
|-------------------0------| 
| 
|--------------------------| 
|--------------------------| 
|--------------------------|right 
|-------------------9------| gtr 
|-7"-6"-8"-7"-6"-5"-7------| 
|-------------------0------| 
	  

Full key step upFull key step up
Half key step upHalf key step up
Half key step downHalf key step down
Full key step downFull key step down
Search Paypal
auto scroll beats size up size down change color hide chords drawings
tab show chords e-chords YouTube Clip e-chords hide all tabs e-chords go to top tab