Kreator

United In Hate

Kreator

tabs Expert expert

by  HUGO_RODRIGUES

save to print version add songbook text version e-mail correct tuner
chordsukulelecavacokeyboardtabbassdrumsharmonicaflute Guitar Pro
close

there isn't a video lesson for this song

chords

United In Hate

	  		 

e|------------------------------------------0---------------------------| 
B|-------1-----0--0------0----------------------------------------------| 
G|----2----2---------2------5/7--5-4/5-5--5--5--------------------------| 
D|---2-------2---------2----3/5--3-2/3-3---3----------------------------| 
A|--0-------------0-----------------------------------------------------| 
E|-0--------------------------------------------------------------------| 

e|----------------------------------------------------------------------| 
B|---0----------0--------1----------------------------------------------| 
G|-2---2--0----2---------2--2---2---------------------------------------| 
D|--------2---2----2-3-2-2----2---2-------------------------------------| 
A|--0-0-0-0--------2-3-2-0----------------------------------------------| 
E|----------------------------------------------------------------------| 

e|-0--------------------------------------------------------------------| 
B|----1--1---0-----0----3-5--6--5---5------0----------------------------| 
G|------2--2---2-------3----------5------3---0--------------------------| 
D|---------------2----3----------------3--------------------------------| 
A|-0---------0-------3--------------------------------------------------| 
E|----------------------------------------------------------------------| 

e|----------------------------------------------------------------------| 
B|---0----------0--------1----------------------------------------------| 
G|-2---2--0----2---------2--2---2---------------------------------------| 
D|--------2---2----2-3-2-2----2---2-------------------------------------| 
A|--0-0-0-0--------2-3-2-0----------------------------------------------| 
E|----------------------------------------------------------------------| 

e|--------------------------------------0-------------------------------| 
B|-6~----6---5~---5---6/8-8--6-5-6--------0-----------------------------| 
G|---3-----3---2----2---------------3-----------------------------------| 
D|-----3---------2--------------------3---------------------------------| 
A|-5~--------3~-------5/7-7--5-3-5--------------------------------------| 
E|----------------------------------------------------------------------| 

e|--------------------------5-------------------------------------------| 
B|-5~----5---3-5-3------------5-----------------------------------------| 
G|---2-----2--------------------5---5-----------------------------------| 
D|-----2--------------7--7--------7---7---------------------------------| 
A|-3~--------2-3--------7--7--------------------------------------------| 
E|------------------5---------------------------------------------------| 

e|------------------------------------10-----10-------------------------| 
B|-6----5-6/8-8----6-8/10-10-11-13---7----------7-----------------------| 
G|---3----------5-------------------7------7----------------------------| 
D|----3----------5-----------------9-----9------------------------------| 
A|-5----3-5/7-7----5-7/9---8-10-12--------------------------------------| 
E|----------------------------------------------------------------------| 

e|----------------------------------------------------------------------| 
B|-12-10-8/10-10----8-7-5------5--3~~-----------------------------------| 
G|---------------7---------2-2------------------------------------------| 
D|----------------7---------2-2-----------------------------------------| 
A|-11-8--7/9--8-----7-5-3-----------------------------------------------| 
E|----------------------------------------------------------------------| 


 
		  

See also:

tabs Kreator - Under The Guillotine tabs Tankard - G.A.L.O.W. tabs Kreator - Bomb Threat tabs Kreator - Death To The World tabs Kreator - Betrayer tabs Kreator - Enemy Of God
e-chords

Other versions:

tabs Kreator - United In Hate
auto scroll beats size up size down change color hide chords drawings
tab show chords e-chords YouTube Clip e-chords hide all tabs e-chords go to top tab

share