Kreator

home > Kreator

Terrible Certainty Tab

Kreator

Difficulty: nolevelnolevel

by matrizarrojito

tuner correct add songbook print version text version save to e-mail
chordsukulelecavacokeyboardtabbassdrumsharmonicsflute Guitar Pro
chords

Terrible Certainty

Year: 2001 - Album: Live Kreation

  		1) Intro: 
e|--------------------------------------------------------| 
B|--------------------------------------------------------| 
G|--------------------------------------------------------| 
D|--------------------7--6-----4------4----------5--------| 
A|--6------6----------5--4--6--2--2-2-2--2-2-3-3-3--5--4--| 
E|--4--4-4-4--4-4-4-4-------4-----------------------3--2--| 
. . . . . . . . . . . . 
 
1b) End with: 
e|-----| 
B|-----| 
G|-----| 
D|--6--| 
A|--6--| 
E|--4--| 
 
2a) Main Riff: 
e|---------------------------------------------------------------------| 
B|---------------------------------------------------------------------| 
G|---------------------------------------------------------------------| 
D|-------------------------------10------------------------------------| 
A|------5---6---5-------10---9------------5---6---5---3---2------------| 
E|--0-0---0---0---0-0-0----0---0----0-0-0---0---0---0---0---0-4-0-3-0--| 
. . . . . . . . . . . . . . . . . . . . . 
2b) 
e|-----------------------------------------------------------------| 
B|-----------------------------------------------------------------| 
G|-----------------------------------------------------------------| 
D|-------------------------------10---------------10---9---7---9~--| 
A|------5---6---5-------10---9------------5---6------0---0---0-----| 
E|--0-0---0---0---0-0-0----0---0----0-0-0---0---0------------------| 
. . . . . . . . . . . . . . . . . 
 
3a) Verse: 1.) 
e|---------------------------------|------------------------------------| 
B|---------------------------------|------------------------------------| 
G|---------------------------------|------------------------------------| 
D|------------------------------6~-|-------------------------10-9-10-9--| 
A|--------------------------6-5----|-------------------------8--7-8--7--| 
E|--0-0057000-0057000-005700-------|-0-0057000-0057000-005700-----------| 
. ....... ....... ...... . ....... ....... ...... 
3b) 
e|------------------------------------------------------------------| 
B|------------------------------------------------------------------| 
G|--------------------------6-5-------------------------------------| 
D|--------------------------4-3--6---------------------------8---8--| 
A|--3-3356333-3356333-335633-----4-3-3356333-3356333-3356333-6-6-6--| 
E|--.-.......-.......-......-------.-.......-.......-.......---.----| 
 
3c) 
Play the first verse-riff, 
but use this ending instead: 
e|--------------------------------| 
B|--------------------------------| 
G|--------------------------------| 
D|--------------------------8-----| 
A|--------------------------6--8--| 
E|--0-0057000-0057000-005700---6--| 
. ....... ....... ...... 
 
4a) Solo rhytm: 
I'm not sure if these are 100% accurate, but I think 
they're close enough. 
e|--------------------------------------------------------------| 
B|--------------------------------------------------------------| 
G|-----------------------------------------------------------5--| 
D|--------------------------3---5----------------------------3--| 
A|--0000000000000000000000001-003-0000000000000000000000001p0---| 
E|--........................--..--.........................-----| 
4b) 
e|--------------------------------------------------------------| 
B|--------------------------------------------------------------| 
G|-----------------------------------------------------------5--| 
D|--------------------------4--------------------------------3--| 
A|--------------5-----7-----2-----------------5-----7-----2p0---| 
E|--0000000000003-00005-0000--00000000000000003-00005-0000------| 
............ .... .... ................ .... .... 
 
Then play the main riffs but end with the same chord 
as the intro ends. 
 
5) Outro: 
(tremolo pick last chord till fade) 
e|-----------------| 
B|-----------------| 
G|-----------------| 
D|--2--------------| 
A|--0---5---4---2--| 
E|------3---2---0--| 
 

	  

Search Paypal
auto scroll beats size up size down change color hide chords drawings
tab show chords e-chords YouTube Clip e-chords hide all tabs e-chords go to top tab