Kreator

home > Kreator

Renewal Tab

Kreator

Difficulty: nolevelnolevel

by matrizarrojito

tuner correct add songbook print version text version save to e-mail
chordsukulelecavacokeyboardtabbassdrumsharmonicsflute Guitar Pro
chords

Renewal

Year: 2001 - Album: Live Kreation

  		 
 
. . . ... . ........ . . . ... . 
|-----------------------------------------------------| 
|-----------------------------------------------------| 
|-----------------------------------------------------| 
|--5---------------3----------5---------------5-3-----| 
|--3-------------5-1----------3-------------5-3-1-----| 
|----0-0-0-000-0-3---00000000---0-0-0-000-0-3---------| 
 
 
 
verse 
===== 
 
|-------------------------------------------------------------| 
|-------------------------------------------------------------| 
|-------------------------------------------------------------| 
|-----------------------------------------------------5--3----| 
|-2---------------------------------------------2--5--3--1----| 
|-0--0-0-0-0-0-0-0-0-0-0-0-0-0-0-0-0-0-0-0-0-0--0--3----------| 
 
pre-Chorus 
========== 
 
 
|-----------------------------------------------------------------| 
|-----------------------------------------------------------------| 
|--2--8---7--5---2--4--5--------2--8---7--5---2--4--5--4--3--2----| 
|-----------------------------------------------------------------| 
|--0--6---5--3---0--2--3----3-2-0--6---5--3---0--2--3--2--1--0----| 
|-----------------------------------------------------------------| 
 
 
Chorus 
====== 
 
|--------------------------------------------------------------------| 
|--------------------------------------------------------------------| 
|--------------------------------------------------------------------| 
|--2------------------------7---------------------------4------------| 
|--2------------------------7---------------------------4------------| 
|--0------------------------5---------------------------2------------| 
 
 

	  

Search Paypal
auto scroll beats size up size down change color hide chords drawings
tab show chords e-chords YouTube Clip e-chords hide all tabs e-chords go to top tab