Kreator

EXTREME AGGRESSION

Kreator

tabs Advanced advanced

by  MATRIZARROJITO

save to print version add songbook text version e-mail correct tuner
chordsukulelecavacokeyboardtabbassdrumsharmonicaflute Guitar Pro
close

there isn't a video lesson for this song

chords

EXTREME AGGRESSION

Year: 2003 - Album: Live Kreation

	  		Riff A 
Guitar 1 
|---------------------------------------------------| 
|---------------------------------------------------| 
|---------------------------------------------------| 
|----2------------------3-2------------2----------| 
|----0----6--------0-1------1-0------0-----3-3--| 
|--0---0-4----0-3------------------0-----0-3-3--| 
* * * * * * * * * * * * 
 
Guitar 2 repeat both as 
one 2x then repeat 
|---------------------------------------------------| guitar 1 part 4x 
|---------------------------------------------------| 
|---------------------------------------------------| 
|----2------------------7-6------------2----------| 
|----0----6--------4-5------5-4------0-----3-3--| 
|--0---0-4----5-8------------------0-----0-3-3--| 
* * * * * * * * * * * * 
 
Riff B 
|----------------------------------------------------------------------------------------------------------| 
|----------------------------------------------------------------------------------------------------------| 
|o---------------------------------------------------------------------------------------------------------| 
|o-5--7----------------8---------------7----------------8---------7---------5---------7--3----------2-| 
|----h---3-3-3-3-3-3---3-3-3-3-3-3---3-3-3-3-3-3----3-3-3----3-3-3----3-3-3-------2-2-2-2--| 
|----------------------------------------------------------------------------------------------------------| 
* * * * * * * * * * * * * * * * * * * * * * * 
* * * * * * * * * 
 
Riff C 
|-----------------------------------------------------------------------| 
|-----------------------------------------------------------------------| 
|----------------------------------------------------------------------o| 
|------------2--3-----------2------------2--3-----------2--------3--o| 
|--2-2-2-2-------2-2-2-2----2-2-2-2-------2-2-2-2----2-2-2-----| 
|-----------------------------------------------------------------------| 
* * * * * * * * * * * * * * * * * * * 
Riff D 
|-------------------------------------------------------------------------------------------------| 
|-------------------------------------------------------------------------------------------------| 
|-------------------------------------------------------------------------------------------------| 
|-------------------------------------------------------------------------------------------------| 
|-------------------------------------------------------------------------------------------------| 
|--00000000000222222222222333333333355555555555222222222333333333--| 
************************************************************** 
 
Riff E 
|------------------------------------------------------------------------------------------| 
|------------------------------------------------------------------------------------------| 
|o-----------------------------------------------------------------------------------------| 
|o----------------------5-4-5----------------------8-\-5-----------------------5-4-5--| 
|--3-3-3-3-3-3-3-3--3-2-3--0-0-0-0-0-0-0-0--6-\-3--3-3-3-3-3-3-3-3--3-2-3--| 
|------------------------------------------------------------------------------------------| 
* * * * * * * * * * * * * * * * * * * * * * * 
* * 
 
|------------------------------| 
|------------------------------| 
|-----------------------------o| 
|-----------------------------o| 
|--0-0-0-0-0-0-0-0--4-5---| 
|-----------------------2-3---| 
* * * * * * * * 
Riff F 
|--------------------------------------------------------------------| 
|--------------------------------------------------------------------| 
|o-------------------------------------------------------------------| 
|o-------------------------------------------------------------4-5--| 
|---------------------------------------------------------------2-3--| 
|--2-2-2-2-2-2-2-2-3-3-3-3-3-3-3-3-5-5-5-5-5-5-5-5--------| 
* * * * * * * * * * * * * * * * * * * * * * * * 
 
|-------------------------------------------------------------------------------------------------------| 
|-------------------------------------------------------------------------------------------------------| 
|------------------------------------------------------------------------------------------------------o| 
|------------------------------------------------------------------------------------------------------o| 
|-------------------------------------------------------------------------------------------------------| 
|--2-2-2-2-2-2-2-2-3-3-3-3-3-3-3-3-5-5-5-5-5-5-5-5-2-2-2-2-2-2-2-2-1-1-1-1-1-1-1-1--| 
* * * * * * * * * * * * * * * * * * * * * * * * * * * * * * * * 
* * * * * * * * 
Riff G 
|------------------------------------------------------------------------------| 
|------------------------------------------------------------------------------| 
|o---------------------------------------------------------------------------o| 
|o------------5-4~----------------------------------5-4~------------------o| 
|--------------------------------6-5-4-3------------------------------3-4---| 
|--3-3-3-3----------3-3-3-3---p-p-p---3-3-3-3---------3-3-3-3--3-4---| 
* * * * * * * * * * * * * * 
* * 
 
Play: Riff B 
Riff C 
Riff D 
Riff E 
Riff F 
Riff G 
 
Pre-Solo Riff 
|-----------------------------------------------------------------------------------------------------| 
|-----------------------------------------------------------------------------------------------------| 
|o--------------------------------------------------------------------------------------------------o| 
|o----------5------4--2---------------------------5--------5-----4--5-----7--------7-----5--4--o| 
|--2--------3------2--0---5-------5------4--5---3--3-3--3-----2--3-----5--5-5--5-----3--2---| 
|--0--0-0-----------------3--3-3--3------2--3-----------------------------------------------------| 
 
 
Solo 
|-----------------------------------------------------------------------------------------------| 
|-----------------------------------------------------------------------------------------------| 
|--4--4-4 / 9-----9--7--6-6-6-6-----6--7--9-9-9-9-----7- -9--11-11-11-11---12--14-| 
|-----------------------------------------------------------------------------------------------| 
|-----------------------------------------------------------------------------------------------| 
|-----------------------------------------------------------------------------------------------| 
 
|-----------------12---12--10--9-9-9-9---9--10--12-12-12-12---10--12--15-15-15-15-| 
|--/-12-12-12-----------------------------------------------------------------------------------| 
|--------------------------------------------------------------------------------------------------| 
|--------------------------------------------------------------------------------------------------| 
|--------------------------------------------------------------------------------------------------| 
|--------------------------------------------------------------------------------------------------| 
 
|--16--18---18^ ^ ^ ^ ^ ^ -------------------------------------------------------------| 
|------------------------------------------------------------------------------------------| 
|-----------------------------16---14--12-16~--16^ 16--16^--14--12--12----------| 
|-------------------------------------------h------------ah----------------------15--15-| 
|------------------------------------------------------------------------------------------| 
|-------------------------------------------------------------------------------------------| 
 
|---------------------------------------------------------------------------------------------------| 
|------------------------------------------------------------------------------14^1\2~-----------| 
|--------------------------------------------------12-14-14^--12-14-12--14^----~--14-12--| 
|--------------------------------------12-13-15------------------h---p--------------------p----| 
|----------------------12-13-15-15--------------------------------------------------------------| 
|--10-12-13-13-15------------------------------------------------------------------------------| 
* * * * * * * * * * * * 
 
|-------------------------------------------------------------------------------------------------------| 
|-------------------------------------------------------------------------------------------------------| 
|--12-14-12-14-12-14-12-14-12--12-12-12-----------------------------------------------------| 
|-----h---p--h---p--h---p--h---p----------------15-15-13-12-------------------------------------| 
|-------------------------------------------------------------------15-15-13-12-13-12-10-10-12-| 
|-------------------------------------------------------------------------------------------------------| 
* * * * * * 
* * * * * * * * * * 
 
|_________________tr______________________| 
 
|---------------------------------------------------------------------------------------------------------| 
|---------------------------------------------------------------------------------------------------------| 
|--------------------------------------12-12-14-14-14---19-18-0--18-16-0--16-14-0--18-16-0-| 
|----------------------12-13-15-15--------------------------p--p------p--p-------p--p-------p--p--| 
|--13-12-13-15-15------------------------------------------------------------------------------------| 
|---------------------------------------------------------------------------------------------------------| 
* * * * * * * * * * * * * * 
|____________tr______________________| 
 
|---------------------------------------------------------------------------------------------------------| 
|---------------------------------------------------------------------------------------------------------| 
|--19-18-0--18-16-0--16-14-0--18-16-0--19-18-0--18-16-0--16-14-0--18-16-0--19-18-0-| 
|-----p--p------p--p-------p--p------p--p-------p--p------p--p-------p--p------p--p-------p--p---| 
|---------------------------------------------------------------------------------------------------------| 
|---------------------------------------------------------------------------------------------------------| 
 
|-------------------------------------/-15-15-15-15-15-15--18-18-18-18-18--15-15-15-15-15-| 
|---------------------------------------------------------------------------------------------------------| 
|--18-16-0--16-14-0--18-16-0-----------------------------------------------------------------------| 
|-----p--p------p--p-------p--p------------------------------------------------------------------------| 
|---------------------------------------------------------------------------------------------------------| 
|---------------------------------------------------------------------------------------------------------| 
 
|--15-15-15-15-15-15--18-18-18-18-18--15-15-15-15-15--18-18-18-18-18--21-21-21-21-| 
|----------------------------------------------------------------------------------------------------------| 
|----------------------------------------------------------------------------------------------------------| 
|----------------------------------------------------------------------------------------------------------| 
|----------------------------------------------------------------------------------------------------------| 
|----------------------------------------------------------------------------------------------------------| 
 
|--18-18-18-18-18--22-22-22-22-22-22--20-20-20-20--18-18-18-18-------------------------| 
|---------------------------------------------------------------------------------20-20-20-20-19-19-| 
|---------------------------------------------------------------------------------------------------------| 
|---------------------------------------------------------------------------------------------------------| 
|---------------------------------------------------------------------------------------------------------| 
|---------------------------------------------------------------------------------------------------------| 
 
|------------------------------| 
|--19-19--18-18-18-\-16--| 
|------------------------------| 
|------------------------------| 
|------------------------------| 
|------------------------------| 
 
Solo Rhythm: 
Play Pre-Solo Riff then the following: 
 
4x 
|--------------------------------------------------------------------| 
|--------------------------------------------------------------------| 
|--------------------------------------------------------------------| 
|------------------------7--8--7-------------------------5--4------| 
|------------------------5--6--5---3-3-3-3--3-3-3-3--3--2--5--| 
|--0-0-0-0--0-0-0-0------------------------------------------3---| 
* * * * * * * * * * * * * * * * 
2x 
|--------------------------------------------------------------------| 
|--------------------------------------------------------------------| 
|--------------------------------------------------------------------| 
|-----------------------------------------------------------------5--| 
|------------------------2--4--5-------------------------4--5--3--| 
|--2-2-2-2--2-2-2-2--0--2--3---3-3-3-3--3-3-3-3--2--3------| 
* * * * * * * * * * * * * * * * 
 
Both guitars 
 
|--------------------------------------------------------------------------------------------| 
|--------------------------------------------------------------------------------------------| 
|--------------------------------------------------------------------------------------------| 
|--9--7--------------------9--7---------------------9--7----------------------------------| 
|--7--5--2-----------------7--5--2-----------------7--5--2-----------------2--2--2-2---| 
|---------0-0-0-0-0-0-0---------0-0-0-0-0-0-0---------0-0-0-0-0-0-0--0--0--0-0---| 
* * * * * * * * * * * * * * * * * 
* 
 

		  

See also:

tabs Kreator - Nonconformist tabs Kreator - Under The Guillotine tabs Kreator - Awakening Of The Gods tabs Tankard - G.A.L.O.W. tabs Kreator - Flag Of Hate tabs Kreator - Some Pain Will Last
e-chords

Other versions:

tabs Kreator - EXTREME AGGRESSION
auto scroll beats size up size down change color hide chords drawings
tab show chords e-chords YouTube Clip e-chords hide all tabs e-chords go to top tab

share