Kreator

Endless Pain

Kreator

tabs Expert expert

by  VELHO

save to print version add songbook text version e-mail correct tuner
chordsukulelecavacokeyboardtabbassdrumsharmonicaflute Guitar Pro
close

there isn't a video lesson for this song

chords

Endless Pain

	  		Standard tuning: EADGBe 

The title track from the album. Not really one of my favorites, 
but still great. 

1) Main riff: 
G|-----------------------------------------------------------------| 
D|----------5-------------------------------5----------------------| 
A|--2-------3-------2-------5-4-5-4-2-------3-------2-------5-4-5--| 
E|--0-000000--0000000-0000003-2-3-2-0-000000--0000000-0000003-2-3--| 
      ......  ......  ......          ......  ......  ...... 

2a) Pre-Chorus: 
|-------------------------------------------------------------------| 
|----------------------4-5-----4-5---------------------4-5-----4-5--| 
|--000000000000000000002-3-00002-3-000000000000000000002-3-00002-3--| 
|--....................----....----....................----....-----| 

2b) Pre-Chorus 2: 
|------------------------------------------------------------------| 
|--------------------------4-4-4-----------------7-----------------| 
|--2222222222222222222222222-2-2-33333333333333335-55555555555555--| 
|--........................------................--..............--| 

3) Chorus: 
G|------------------------------------------------------------------| 
D|----------------------10/9-----8/7-----------------------------5--| 
A|-----------------------8/7-----6/5-----------------------------3--| 
E|--00000000000000000000-----0000----0000000000000000000033223300---| 
    ....................     ....    ............................ 

4a) Post-Chorus: 
G|------------------------------------| 
D|------7-9-----5-7-----4-5-----------| 
A|------5-7-----3-5-----2-3-----------| 
E|--0000----0000----0000----00000000--| 
    ....    ....    ....    ........ 

4b) Post-Chorus 2:				     End with:	 
G|--------------------------------------------------| |-----| 
D|-------12--12------10--10------8--8-----9-----10--| |-----| 
A|-------10--10-------8---8------6--6-----7------8--| |--2--| 
E|--0-000-------0-000-------0-000-----0000--0000----| |--0--| 
    . ...       . ...       . ...     ....  .... 

5) Outro: 
G|-------------------------------------| 
D|----------4---4-5*-------------------| 
A|--2---2-2-2---2-3--------------------| 
E|--0---0-0-----------0-0-0-0-0-0-0-0--| 
        . .           . . . . . . . . 

*4th time, end with this chord 

End with tremolo picking an E5-chord. 
		  

See also:

tabs Kreator - Under The Guillotine tabs Tankard - G.A.L.O.W. tabs Kreator - Bomb Threat tabs Kreator - Death To The World tabs Kreator - Betrayer tabs Kreator - Enemy Of God
e-chords

Other versions:

tabs Kreator - Endless Pain
auto scroll beats size up size down change color hide chords drawings
tab show chords e-chords YouTube Clip e-chords hide all tabs e-chords go to top tab

share