Kraftklub

Für Immer

Kraftklub

tabs

by  BRUNBLAZKOWSKI

save to print version add songbook text version e-mail correct tuner
chordsukulelecavacokeyboardtabbassdrumsharmonicaflute Guitar Pro
close

there isn't a video lesson for this song

chords

Für Immer

	  		
Guitar Intro 
e|---------------------------------------------------------------------------| 
B|---------------------------------------------------------------------------| 
G|---------------------------------------------------------------------------| 
D|--4-4-4-4-4-4-4-4--7-7-7-7-7-7-7-7--9-9-9-9-9-9-9-9-9-10-10-10-10-7-7-7-7--| 
A|--4-4-4-4-4-4-4-4--7-7-7-7-7-7-7-7--9-9-9-9-9-9-9-9-9-10-10-10-10-7-7-7-7--| 
E|--2-2-2-2-2-2-2-2--5-5-5-5-5-5-5-5--7-7-7-7-7-7-7-7-7--8--8--8--8-5-5-5-5--| 



Guitar Verse ,,Ich bin ein positiver Mensch..." 
e|---------------------------------------------------------------------------| 
B|---------------------------------------------------------------------------| 
G|---7---12-----------------7------------------------------------------------| 
D|---7---12---12---7-\--9---7--7---4----------------------------------------| 
A|---5---10---12---7-\--9---5--7---4------------------------------------------| 
E|------------10---5-\--7------5---2-----------------------------------------| 
Guitar Verse ,,Die Beziehung ist vorbei..." (Die beiden ^ immer abwechselnd) 
e|---------------------------------------------------------------------------| 
B|---------------------------------------------------------------------------| 
G|----7---12----------------7------------------------------------------------| 
D|----7---12---12---7---9---7--7---4-----------------------------------------| 
A|----5---10---12---7---7---5--7---4-----------------------------------------| 
E|-------------10---5---7------5---2-----------------------------------------| 



Verse end 
e|---------------------------------------------------------------------------| 
B|---------------------------------------------------------------------------| 
G|-----7----10-----6-------------------------------------------------------| 
D|-----7----10-----6---------------------------------------------------------| 
A|-----5-----8-----4---------------------------------------------------------| 
E|---------------------------------------------------------------------------| 

Chorus abwechselnd 1. wie Intro ^ und 2.  
D|---4-4-4-4-4-4-4-4-7-7-7-7-7-7-7-7-9-10-10-10-10-10-10-10-10--------------| 
A|---4-4-4-4-4-4-4-4-7-7-7-7-7-7-7-7-9-10-10-10-10-10-10-10-10--------------| 
E|---2-2-2-2-2-2-2-2-5-5-5-5-5-5-5-5-7-8--8--8--8--8--8--8--8---------------| 

Danach wieder Verse... 

Schlagzeug und klatschende Hände 
Anstatt der Drums spielt Karl immer die seiten über dem Sattel an (schrill) 
		  

See also:

tabs J. Cole - No Role Modelz tabs Kraftklub - Unsere Fans tabs Alligatoah - Willst Du tabs Prinz Pi - Laura tabs Kraftklub - Ich Will Nicht Nach Berlin tabs Alligatoah - Trauerfeier Lied
e-chords

Other versions:

tabs Kraftklub - Für Immer
auto scroll beats size up size down change color hide chords drawings
tab show chords e-chords YouTube Clip e-chords hide all tabs e-chords go to top tab

share