Kotipelto

Reasons

Kotipelto

tabs

by  VSWORLD

save to print version add songbook text version e-mail correct tuner
chordsukulelecavacokeyboardtabbassdrumsharmonicaflute Guitar Pro
close

there isn't a video lesson for this song

chords

Reasons

	  		A música é 8/4 (facilita a escrita). 

As notas entre parenteses são pra você escolher, como achar mais fácil de tocar, mas é pra fazer apenas 1 das duas. 

Tune 1/2 step down: 

Intro: 

E|--------------------------------------|---------------------------------| 
B|--------------------------------------|---------------------------------| 
G|--------------------------------------|---------------------------------| 
D|--4-----------------------------------|--4------------------------------| 
A|--2--5--4--2----5------(2)--------4---|--2--5--4--5-----5------(2)--7---| 
E|-------------5--3---3--(7)--5--3--2---|--------------5--3---3--(7)--5---| 

Verse: 

E|------------------------------------|------------------------------| 
B|------------------------------------|------------------------------| 
G|------------------------------------|------------------------------| 
D|--9---------------5-------4---------|--9---------------------------| 
A|--9---------------5-------4---------|--9---------------5--(2)--7---| 
E|--7-7-7-7-7-7-7-7-3-3-3-3-2-2-2-2-2-|--7-7-7-7-7-7-7-7-3--(7)--5---| 

Refrão: 

E|--------|--------|--------|---------| 
B|--------|--------|--------|---------| 
G|--------|--------|--------|---------| 
D|--------|--5-----|--------|--8--10/-| 
A|--5--2--|--3--2--|--5--2--|--6--8-/-| 
E|--3--1--|-----1--|--3--1--|---------|  e desliza para intro (2X) 

Base Solo:  

Repete intro 1 tom acima 4X. 

____________________________________ 

Agora você vê em que ordem você repete o que. 
		  

See also:

tabs Blue Oyster Cult - Dont Fear The Reaper tabs Guns N' Roses - Nightrain tabs Guns N' Roses - You Could Be Mine tabs Guns N' Roses - November Rain (Ver. Acoustic) tabs Guns N' Roses - Civil War tabs Guns N' Roses - Don't Cry
e-chords

Other versions:

tabs Kotipelto - Reasons tabs Project 46 - Reasons tabs Nickel Creek - Reasons Why
auto scroll beats size up size down change color hide chords drawings
tab show chords e-chords YouTube Clip e-chords hide all tabs e-chords go to top tab

share