Koji Wada

Butter-fly

Koji Wada

tabs

by  DEDEISEG

save to print version add songbook text version e-mail correct tuner
chordsukulelecavacokeyboardtabbassdrumsharmonicaflute Guitar Pro
close

there isn't a video lesson for this song

chords

Butter-fly

	  		

Introdução: 

GUITARS 1 & 2: 

e|--------------------------------------------------------------------------------| 
B|--------------------------------------------------------------------------------| 
G|--9--x--x--9--x--x--7--7--x--6--x--7--x--9--x--x--9--x--x--7--7--x--6--x--7--x--| 
D|--------------------------------------------------------------------------------| 
A|--7--x--x--7--x--x--5--5--x--4--x--5--x--7--x--x--7--x--x--5--5--x--4--x--5--x--| 
E|--------------------------------------------------------------------------------| 

GUITARRA 1: 

e|-----------------------|-----------------------|-----------------------|-----------------------| 
B|-----------------------|-----------------------|-----------------------|-----------------------| 
G|-----------------------|-----------------------|-----------------------|-----------------------| 
D|--6--7--6--4-----4--7--|--6--7--6--4-----4-----|--6--7--6--4-----4--7--|--6--7--6--4-----4-----| 
A|--------------7--------|--------------7-----5--|--------------7--------|--------------7-----5--| 
E|-----------------------|-----------------------|-----------------------|-----------------------| 

GUITAR 2: 

e|-------------------------|------------------------|-------------------------|------------------------| 
B|--9--10--9--7-----7--10--|--9--10--9--7-----7-----|--9--10--9--7-----7--10--|--9--10--9--7-----7-----| 
G|---------------9---------|---------------9-----7--|---------------9---------|---------------9-----7--| 
D|-------------------------|------------------------|-------------------------|------------------------| 
A|-------------------------|------------------------|-------------------------|------------------------| 
E|-------------------------|------------------------|-------------------------|------------------------| 


Verso/Estrofe: x2 

GUITARRA 1: 

e|------------------------------|-----------------------------------------| 
B|------------------------------|-----------------------------------------| 
G|-----------------------5---7--|-----------------------------------------| 
D|--2------6------7------5---7--|-----------------------------------------| 
A|--2------6------7------3---5--|-----------------------------------------| 
E|--0------4------5-------------|--0--3--4--0--3--4--0--0--2--0--3--0--4--| 

GUITARRA 2: 

e|--------------------------|-----------------------------|-----------------------------------------------| 
B|--------------------------|-----------------------------|-----------------------------------------------| 
G|--------------------6-----|-----------------------6--8--|-----------------------------------------------| 
D|--6--9--9--9--9--6-----9--|--4--6--9--9--9--9--6--------|--6--4--6--4--2--2-----2--4--2--4--7--5--4--2--| 
A|--------------------------|-----------------------------|--------------------4--------------------------| 
E|--------------------------|-----------------------------|-----------------------------------------------| 


Pre-Chorus 
GUITARRA 1: 

e|--------------------------| 
B|--------------------------| 
G|--6-----------------------| 
D|--6------6------7------2--| 
A|--4------6------7------2--| 
E|---------4------5------0--| 

GUITARRA 2: 

e|--------------------------|--------------------------------------| 
B|--------------------------|--------------------------------------| 
G|-----------9--8--6--------|--------------------------------------| 
D|--6--9--6-----------9--6--|--6--4--6--4--2--2--2--2--4--2--7--6--| 
A|--------------------------|--------------------------------------| 
E|--------------------------|--------------------------------------| 

GUITARRA 1: 

e|-----------------------------------|--7--5--5----5--7--| 
B|-----------------------------------|--7--5--5----5--7--| 
G|--6---------------------5---7---4--|-------------------| 
D|--6------6------7---9---5---7---4--|-------------------| 
A|--4------6------7---9---3---5---2--|-------------------| 
E|---------4------5---7--------------|-------------------| 

GUITARRA 2: 

e|--------------------------|--------------------------------------| 
B|--------------------------|--------------------------------------| 
G|-----------9--8--6--------|--------------4-----4--5--4--5--7--4--| 
D|--6--9--6-----------9--6--|--6--7--6--7-----7--------------------| 
A|--------------------------|--------------------------------------| 
E|--------------------------|--------------------------------------| 


Chorus: 

GUITARRA 1: 

e|----------------------------------------------| 
B|----------------------------------------------| 
G|-------4----5--6-----------------6------------| 
D|--2----4----5--6----6----7----6--6----7----9--| 
A|--2----2----3--4----6----7----6--4----7----9--| 
E|--0-----------------4----5----4-------5----7--| 

GUITARRA 2: 

e|-----------------------------------|----------------------------------------------|--------------------------------------------| 
B|--------7--9--7--9--7--------------|--------9--7-----7----------------------------|--------------------------9--7--7--7-----7--| 
G|--9--9-----------------9--8--8--9--|--6--9--------9-----9----9--8--6--4-----4--6--|--6--9--6--9--6--9--6--6--------------9-----| 
D|-----------------------------------|-------------------------------------6--------|--------------------------------------------| 
A|-----------------------------------|----------------------------------------------|--------------------------------------------| 
E|-----------------------------------|----------------------------------------------|--------------------------------------------| 

GUITARRA 1: 

e|----------------------------------------------| 
B|----------------------------------------------| 
G|-------4----5--6-----------------6----5----7--| 
D|--2----4----5--6----6----7----6--6----5----7--| 
A|--2----2----3--4----6----7----6--4----3----5--| 
E|--0-----------------4----5----4---------------| 

GUITARRA 2: 

e|-----------------------------------|-----------------7--------------|-----------------------|-----------| 
B|--------7--9--7--9--7--------------|--------9--7--7-----------------|-----------------7--5--|--5--3--5--| 
G|--9--9-----------------9--8--8--9--|--6--9--------------9--8--8--9--|--9--8--6--4--4--------|-----------| 
D|-----------------------------------|--------------------------------|-----------------------|-----------| 
A|-----------------------------------|--------------------------------|-----------------------|-----------| 
E|-----------------------------------|--------------------------------|-----------------------|-----------| 


Outro: 

GUITARRA 1: 

e|-----------------------|-----------------------|-----------------------|-----------------------|--------------| 
B|-----------------------|-----------------------|-----------------------|-----------------------|--------------| 
G|-----------------------|-----------------------|-----------------------|-----------------------|--------------| 
D|--6--7--6--4-----4--7--|--6--7--6--4-----4-----|--6--7--6--4-----4--7--|--6--7--6--4-----4-----|--6--7--9-----| 
A|--------------7--------|--------------7-----5--|--------------7--------|--------------7-----5--|-----------7--| 
E|-----------------------|-----------------------|-----------------------|-----------------------|--------------| 

GUITARRA 2: 

e|-------------------------|------------------------|-------------------------|------------------------|----------------| 
B|--9--10--9--7-----7--10--|--9--10--9--7-----7-----|--9--10--9--7-----7--10--|--9--10--9--7-----7-----|--9--10--12-----| 
G|---------------9---------|---------------9-----7--|---------------9---------|---------------9-----7--|-------------9--| 
D|-------------------------|------------------------|-------------------------|------------------------|----------------| 
A|-------------------------|------------------------|-------------------------|------------------------|----------------| 
E|-------------------------|------------------------|-------------------------|------------------------|----------------| 
		  

See also:

tabs Aqua Timez - Sen No Yoru Wo Koete (Intro) tabs Shonen Knife - Ramones Forever tabs Spitz - Holiday tabs Hikaru Utada - Sakura Nagashi tabs Do As Infinity - Enrai tabs HB - Time Of Silence
e-chords

Other versions:

tabs Koji Wada - Butter-fly
auto scroll beats size up size down change color hide chords drawings
tab show chords e-chords YouTube Clip e-chords hide all tabs e-chords go to top tab

share