Koji Kondo

Super Mario Bros. Theme

Koji Kondo

tabs Advanced advanced

by  RENANJCC

save to print version add songbook text version e-mail correct tuner
chordsukulelecavacokeyboardtabbassdrumsharmonicaflute Guitar Pro
close
super-mario-bros-theme-by-koji-kondo

there is a video lesson for this song

chords

Super Mario Bros. Theme

(Koji Kondo)

	  		Guitar 1 - Part A  

e|-12-12-12----12-15------------------------------12-15-17-13-15-12-|  
B|-----------13------------13---------------------------------------|  
G|-------------------12------12----14-16-15-14-12-------------------|  
D|------------------------------14----------------------------------|  
A|------------------------------------------------------------------|  
E|------------------------------------------------------------------|  

e|--------------------------------------12-15-17-13-15-12-----------|  
B|--13-15-12---13------------------------------------------13-15-12-|  
G|----------------12----14-16-15-14-12------------------------------|  
D|-------------------14---------------------------------------------|  
A|------------------------------------------------------------------|  
E|------------------------------------------------------------------|  

Guitar 2 - Part A  

e|----------------------------------------------------|  
B|----------------------------------------------------|  
G|----------------------------------------------------|  
D|-----------5-5--5-2---2-5-4-3-2-----2-3-0-2---0-2---|  
A|-5-5-5-5-5----------3-------------3---------3-----3-|  
E|----------------------------------------------------|  

e|-------------------------------------|  
B|-------------------------------------|  
G|-------------------------------------|  
D|-5-2---2-5-4-3-2-----2-3-0-2---0-2---|  
A|-----3-------------3---------3-----3-|  
E|-------------------------------------|  


Guitar 1 - Part B - 2x  

e|-15-14-13----12---------------------15-14-13----12-20-20-20--|  
B|----------16-----------13----13-15-----------16--------------|  
G|-----------------13-14----14---------------------------------|  
D|-------------------------------------------------------------|  
A|-------------------------------------------------------------|  
E|-------------------------------------------------------------|  

e|-15-14-13----12-------------------------------|  
B|----------16-----------13----13-15---16-15-13-|  
G|-----------------13-14----14------------------|  
D|----------------------------------------------|  
A|----------------------------------------------|  
E|----------------------------------------------|  

Guitar 2 - Part B  

e|-------------------------------------------------------------|  
B|-------------------------5-----------------------------------|  
G|-----5-----------------5---------5---------------------------|  
D|---5-----------------2-----5---5-----------------------5-5---|  
A|-3---------3-3-3---3---------3---------3-3-3---3---1-3-----3-|  
E|-------1---------1-------------------1-------1---4-----------|  

e|-------------------------------------------------------------|  
B|-------------------------5-----------------------------------|  
G|-----5-----------------5---------5---------------------------|  
D|---5-----------------2-----5---5-----------------------5-5---|  
A|-3---------3-3-3---3---------3---------3-3-3---3---1-3-----3-|  
E|-------1-1-------1-----------------1-1-------1---4-----------|  

  

Guitar 1 - Part C  

e|----------------12------------------------------12-|  
B|-13-13-13-13-15----13------------13-13-13-13-15----|  
G|-----------------------14-12-----------------------|  
D|---------------------------------------------------|  
A|---------------------------------------------------|  
E|---------------------------------------------------|  

e|----------------12-----------|  
B|-13-13-13-13-15----13--------|  
G|-----------------------14-12-|  
D|-----------------------------|  
A|-----------------------------|  
E|-----------------------------|  

Guitar 2 - Part C  

e|--------------------------------------|  
B|--------------------------------------|  
G|--------------------------------------|  
D|-----6-5----------6-5---------6-5-----|  
A|---6-----3------6-----3-----6-----3---|  
E|-4---------3--4---------3-4---------3-|  
  

Guitar 1 - Part D - 2x  

e|-12-------------13-13--------17-17-17-15-13-12----------|  
B|----13-----------------------------------------13-------|  
G|-------12-13-14-------14--16----------------------14-12-|  
D|--------------------------------------------------------|  
A|--------------------------------------------------------|  
E|--------------------------------------------------------|  

e|-12-------------13-13--------13-13-13-12----------------|  
B|----13--------------------12-------------15-13----------|  
G|-------12-13-14-------14--------------------------------|  
D|-----------------------------------------------14-14----|  
A|-----------------------------------------------------15-|  
E|--------------------------------------------------------|  

Guitar 2 - Part D  

e|-------------------------------------------------------------|  
B|-------------------------------------------------------------|  
G|-5-----5-----5-5----------4-----5-5----5-----5-----5-5-------|  
D|---4-5---3-3-----3----3-5---5-5-----5----4-5---3-3-----3-5-5-|  
A|--------------------5----------------------------------------|  
E|-------------------------------------------------------------|  

e|-------------------------------------------------------------|  
B|-------------------------------------------------------------|  
G|-----4-5---5--5-----5-----5-5---------4-----5-5----5-----5---|  
D|-5-7-----5------4-5---3-3-----3---3-5---5-5-----5----4-5---3-|  
A|--------------------------------5----------------------------|  
E|-------------------------------------------------------------|  

e|---------------------------|  
B|---------------------------|  
G|---5-5-------------4-5---5-|  
D|-3-----3-5---5-5-7-----5---|  
A|---------------------------|  
E|---------------------------|  

Guitar 1 - Part E  

e|-12-12-12----12-15----|  
B|----------13-------12-|  
G|----------------------|  
D|----------------------|  
A|----------------------|  
E|----------------------|  

Guitar 2 - Part E  

e|---------------|  
B|---------------|  
G|---------------|  
D|-----------5-5-|  
A|-5-5-5-5-5-----|  
E|---------------|  

		  

Full key step upFull key step up
Half key step upHalf key step up
Half key step downHalf key step down
Full key step downFull key step down
hide glossary

See also:

tabs Sword Art Online - A Tender Feeling tabs K-On - Dont Say Lazy tabs Yasuharu Takanashi - Past Story tabs Zelda - Phantom Hourglass - Linebeck's Theme tabs Maximum The Hormone - Alien tabs Maximum The Hormone - Whats Up People
e-chords

Other versions:

tabs Koji Kondo - Super Mario Bros. Theme
auto scroll beats size up size down change color hide chords drawings
tab show chords e-chords YouTube Clip e-chords hide all tabs e-chords go to top tab

share