Koji Kondo

Dire Dire Docks

Koji Kondo

tabs Beginner beginner

by  JESSGOMES

save to print version add songbook text version e-mail correct tuner
chordsukulelecavacokeyboardtabbassdrumsharmonicaflute Guitar Pro
close

there isn't a video lesson for this song

chords

Dire Dire Docks

	  		Drop D 

  Rhythm 

  Intro 

 
E|---------------------------------------------------------------| 
B|---------------------------------------------------------------| 
G|---------------------------------------------------------------| 
D|--------5------5------3------3---------5------5------3------3--| 
A|------5------5------3------3----3----5------5------3------3----| 
D|----5------5------3------3---------5------5------3------3------| 
 

 
E|-----------------------------------| 
B|-----------------------------------| 
G|-----------------------------------| 
D|------1------1------3------3-------| 
A|----1------1------3------3----3----| 
D|--1------1------3------3-----------| 
 

  Riff 

 
E|-------------------------------------------------------------| 
B|-------------------------------------------------------------| 
G|-------------------------0----0------------------------------| 
D|---------5------3------1----1-------3----3-----5--5-----5----|  (2x) 
A|------5----5---------1------------3----3-----5--------5------| 
D|----5--------3-----1------------3----------5--------5--------| 
 

 
E|----------------------------------------------------------------------------------| 
B|----------------------------------------------------------------------------------| 
G|--------5------4----4------2-------------------5------4-----1-3-3--3----2----2----| 
D|------5------5----5------2----2------5-------5------5----------------------0------| 
A|----3------2-----------0-----------5----5--3------2------1------------0-----------| 
D|---------------------------------5------------------------------------------------| 
 

 
E|-------------------------------------------------------------| 
B|-------------------------------------------------------------| 
G|-------------------------0----0------------------------------| 
D|---------5------3------1----1-------3----3-----5--5-----5----|  (2x) 
A|------5----5---------1------------3----3-----5--------5------| 
D|----5--------3-----1------------3----------5--------5--------| 
 

  Outro 

 
E|---------------------------------------------------| 
B|---------------------------------------------------| 
G|---------------------------------------------------| 
D|--------3------3------1--1------1------0------0----| 
A|------3------3------1---------1------0------0------| 
D|----3------3------1---------1------0------0--------| 
 

  Lead 

  Intro 

 
E|------------10-----------10-----------10-----------10--| 
B|----------8------------8------------8------------8-----| 
G|--------7------------7------------7------------7-------| 
D|----7-9----------7-9----------7-9----------7-9---------| 
A|-------------------------------------------------------| 
D|-------------------------------------------------------| 
 

 
E|----------10------------10----| 
B|--------8-------------8-------| 
G|------7-------------7---------| 
D|--7-8----------7-10-----------| 
A|------------------------------| 
D|------------------------------| 
 

  Riff 

 
E|-----------7-8-7-----------------------------------------| 
B|------8-10-------10-8------8---------------8--------8----| 
G|----7-----------------7------7-----------7--------7------| 
D|------------------------10-------10-10-9------7-9--------| 
A|---------------------------------------------------------| 
D|---------------------------------------------------------| 
 

 
E|-----------7-8-7------------------------------------------| 
B|------8-10-------10-8------8---------------8--------------| 
G|----7-----------------7------7-----------7----------------| 
D|------------------------10-------10-10-9------7-9----9----| 
A|--------------------------------------------------10------| 
E|----------------------------------------------------------| 
 

 
E|------12-10-8-12-10------10-8-7-8-7------12-10-8-12-10----8-10-8-7--------| 
B|----8---------------8---------------8--8---------------8-----------8------| 
G|-----------------------9---------------------------------------------9----| 
D|--------------------------------------------------------------------------| 
A|--------------------------------------------------------------------------| 
D|--------------------------------------------------------------------------| 
 

 
E|-----------7-8-7---------------------------------------| 
B|------8-10-------10-8------8------------8--------------| 
G|----7-----------------7------7--------7-----------7----| 
D|------------------------10-------10-9------7----9------| 
A|---------------------------------------------10--------| 
D|-------------------------------------------------------| 
 

 
E|-----------7-8-7------------------------------------------| 
B|------8-10-------10-8------8---------------8---------8----| 
G|----7-----------------7------7-----------7----------------| 
D|------------------------10-------10-10-9------7----9------| 
A|------------------------------------------------10--------| 
D|----------------------------------------------------------| 
 

  Outro 

 
E|---------------------------------------------------------------------| 
B|----6--6-6-6--6-6-6--6-6-6--8--8--8--8--8-8-8-8-8--8-8-8-10-10-10----| 
G|---------------------------------------------------------------------| 
D|---------------------------------------------------------------------| 
A|---------------------------------------------------------------------| 
D|---------------------------------------------------------------------| 
 

Credits to: CSGuitar89 
		  

Full key step upFull key step up
Half key step upHalf key step up
Half key step downHalf key step down
Full key step downFull key step down
hide glossary

See also:

tabs Sword Art Online - A Tender Feeling tabs K-On - Dont Say Lazy tabs Yasuharu Takanashi - Past Story tabs Zelda - Phantom Hourglass - Linebeck's Theme tabs Maximum The Hormone - Alien tabs Maximum The Hormone - Whats Up People
e-chords

Other versions:

tabs Koji Kondo - Dire Dire Docks
auto scroll beats size up size down change color hide chords drawings
tab show chords e-chords YouTube Clip e-chords hide all tabs e-chords go to top tab

share