Kleber Lucas

home > Kleber Lucas

Milagre do Amor Tab

Kleber Lucas

Difficulty: ExpertExpert

by Gui%2Etar

tuner correct add songbook print version text version save to e-mail
chordsukulelecavacokeyboardtabbassdrumsharmonicsflute Guitar Pro
chords

Milagre do Amor

  		Riff feito em 2:45 minutos da música.

   F            F/A     A#          A#/D     
e|-------------------------------------------------|  
B|-6b8-6-------------------------------------------|  
G|-------8-7h8p7p5-7/8-7~~\------------------------|  
D|-------------------------------------------------|  
A|-------------------------------------------------|  
E|-------------------------------------------------|  


   D#      	D     Cm 
e|-------------------------------------------------|  
B|-------------------------------------------------|  
G|-8-7h8p7p5-----5/7-5-----------------------------|  
D|------------8-5----------------------------------|  
A|-------------------------------------------------|  
E|-------------------------------------------------|  




Cifrada por: Guilherme 

	  

Search Paypal
auto scroll beats size up size down change color hide chords drawings
tab show chords e-chords YouTube Clip e-chords hide all tabs e-chords go to top tab