Kleber Lucas

home > Kleber Lucas

Fácil Diferença Tab

Kleber Lucas

Difficulty: BeginnerBeginner

by marcio007

tuner correct add songbook print version text version save to e-mail
chordsukulelecavacokeyboardtabbassdrumsharmonicsflute Guitar Pro
chords

Fácil Diferença

Year: 2003 - Album: Pra Valer A Pena

  		intro 
 
E-------------------------------------------------------- 
A---7------------7--------------------------------------- 
D----7-9-------7--9------7--9--7-9----------9-9-7-9------ 
G--------6-7-6------9-7-6--9-------9-7-7-6-6------------- 
B-------------------------------------------------------- 
e-------------------------------------------------------- 
 
solo  
E--7-9--------------------------------------------------- 
A------7-9-11-------------------------------------------- 
D-------------7-9-11----------------------9-------------- 
G--------------------6-7-9-7-6/-6-7-9-7-6---------------- 
B-------------------------------------------------------- 
e-------------------------------------------------------- 
 
E--7-9--------------------------------------------------- 
A------7-9-11-------------------------------------------- 
D-------------7-9-11------------------------------------- 
G--------------------6-7-9------------------------------- 
B--------------------------7-9-10------------------------ 
e---------------------------------7-9-12--12-10-12*-12~-- 
 
final  
E-------------------------------------------------------- 
A---7-------------7-------------------------------------- 
D-----7-9-------7---9-------7---9--7-9------------------- 
G---------6-7-6-------9-7-6---9--------6----------------- 
B-------------------------------------------------------- 
e-------------------------------------------------------- 
 
 

	  

Search Paypal
auto scroll beats size up size down change color hide chords drawings
tab show chords e-chords YouTube Clip e-chords hide all tabs e-chords go to top tab