Kleber Lucas

home > Kleber Lucas

Deus Forte Tab

Kleber Lucas

Difficulty: BeginnerBeginner

by brunog3

tuner correct add songbook print version text version save to e-mail
chordsukulelecavacokeyboardtabbassdrumsharmonicsflute Guitar Pro
chords

Deus Forte

Year: 2001 - Album: Aos Pés Da Cruz

  		 INTRO: 
E|----5/7---3-5-------------5/7----7-5-3----------- 
B|-3-5-----------3/5--3--5-----------------3/5----- 
G|------------------------------------------------- 
D|------------------------------------------------- 
A|------------------------------------------------- 
E|------------------------------------------------- 
 
  G 
Ó Deus tu és o meu Deus forte 
   D/F# 
O Grande El-Shaddai 
Em        Bm      C 
Todo poderoso, Adonai 
         G          D/F# 
Teu nome é Maravilhoso 
      Em            C 
Conselheiro, Príncipe da Paz 
    G/D     D             C 
Yeshuaramashia, Deus Emanuel 
 
G                      D/F# 
O Pastor de Israel, o Guarda de Sião 
Em            Bm         C 
A Brilhante Estrela da Manhã 
            G        D/F# 
Jesus teu nome é precioso 
       Em           C 
Meu Senhor e Cristo 
  G/D           D           C 
O nome sobre todos pelo qual existo 
 
   G      D/F#          Em       D  C 
Jirêh, o Deus da minha provisão 
      
   G      D/F#           Em        
Shalom, o Senhor da minha paz 
página 1 
C                        D 
Shamar, Deus presente sempre está 
     C   Am               D   C/E  D/F# 
El-elion, outro igual não há 
G               D/F# Em                 C   
Jeovah Rafa meu Senhor que cura toda dor 
      G/B  Am  G/B   C/D D   G           
Tsekenu Yaveh minha justiça é 
               D/F#  Em       Bm       C      
Elohim, Elohim Deus no controle está meu Deus 
 D       G          
Tudo governa 
 
SOLO: 
 
E|-------------5----8/10----8-7-8-7----|-------------------- 
B|-5-7-8-7-8-------------------------8-|-3-5-7-5-8----13-12- 
G|-------------------------------------|-------------------- 
D|-------------------------------------|-------------------- 
A|-------------------------------------|-------------------- 
E|-------------------------------------|-------------------- 
 
DESCIDA 
E|----------------15----19---17---15------------------------------------- 
B|---------17-19---------------------19/17--15---15/17--15---13----12/10- 
G|-16-18----------------------------------------------------------------- 
D|----------------------------------------------------------------------- 
A|----------------------------------------------------------------------- 
E|----------------------------------------------------------------------- 
 
 
E|--------------------------|-15-13-12--------------------------------------- 
B|-8-------------14/15---13-|------------15-13-12----12-15------------------- 
G|---11-12-14---------------|-----------------------14---------14-12--------- 
D|--------------------------|---------------------------------------------12- 
A|--------------------------|------------------------------------------------ 
E|--------------------------|------------------------------------------------ 

	  

Full key step upFull key step up
Half key step upHalf key step up
Half key step downHalf key step down
Full key step downFull key step down
Search Paypal
auto scroll beats size up size down change color hide chords drawings
tab show chords e-chords YouTube Clip e-chords hide all tabs e-chords go to top tab