Kleber Lucas

home > Kleber Lucas

Arrebatado Tab

Kleber Lucas

Difficulty: ExpertExpert

by iva%2E%2E%2E

tuner correct add songbook print version text version save to e-mail
chordsukulelecavacokeyboardtabbassdrumsharmonicsflute Guitar Pro
chords

Arrebatado

  		Álbum: Pra valer a pena

SOLO NA INTRODUÇÃO
1ª Parte

E---------------------------------------------------------------------
A---------------------------------------------------------------------
D----------------------------11-----------------------11--------------
G--8-10-11-----------11-10-8----8---8-10-11---11-10-8----8------------
B----------9-11-11-9------------------------9-------------------------
e---------------------------------------------------------------------

2ª Parte
E---------------------------------------------------------------------
A---------------------------------------------------------------------
D----------------------------11------------------------11-------------
G--8-10-11-----------11-10-8----8---8-10-11-10-11-10-8----8-----------
B----------9-11-11-9--------------------------------------------------
e---------------------------------------------------------------------

SOLO NO MEIO DA MUSICA

E---------------------------------------------------------------------
A---------------------------------------------------------------------
D------------------------------------------------11-------------------
G-------------------11-9-11---8-10-11-10-11-10-8----8-----------------
B-10-12-----12-10-9---------------------------------------------------
e-------9-9-----------------------------------------------------------
	  

Search Paypal
auto scroll beats size up size down change color hide chords drawings
tab show chords e-chords YouTube Clip e-chords hide all tabs e-chords go to top tab